Sound will begin in 5 seconds

6 String Scale Positions

01234567891011121314151617181920212223
E
B
G
D
A
E
B
0 1 2 3 4 5 6 7 8 9 10 11 12 13 14 15 16 17 18 19 20 21 22 23
Song Science #1: How Pros Use 6 Chords to Write Hit Songs
(/) Slide Up  (\) Slide Down  (h) Hammer On  (p) Pull Off  (b) Bend (r) Release (v) Vibrato

Stave 1:

E|---------------------------2-3-5-5-3-2-------------------------------
B|-----------------------3-5-------------5-3---------------------------
G|-----------------2-4-5---------------------5-4-2---------------------
D|-----------2-4-5---------------------------------5-4-2---------------
A|-----2-3-5---------------------------------------------5-3-2---------
E|-3-5---------------------------------------------------------5-3-2-3-

Stave 2:

E|--------------------------------10-12-12-10------------------------------------------------
B|-----------------------10-12-13-------------13-12-10---------------------------------------
G|---------------9-11-12-------------------------------12-11-9-------------------------------
D|-------9-10-12-----------------------------------------------12-10-9-----------------------
A|-10-12---------------------------------------------------------------12-10-9----------9-10-
E|-----------------------------------------------------------------------------12-10-12------

Stave 3:

E|---------------------5-7-8-8-7-5-------------------------------------------
B|---------------5-7-8-------------8-7-5-------------------------------------
G|---------4-5-7-------------------------7-5-4-------------------------------
D|-----5-7-------------------------------------7-5-4---------------------4-5-
A|---------------------------------------------------7-5-------------5-7-----
E|-------------------------------------------------------8-7-5-5-7-8---------

Stave 4:

E|----------------12-14-15-15-14-12-------------------------------------------------------------------------
B|-------12-13-15-------------------15-13-12----------------------------------------------------------------
G|-12-14-------------------------------------14-12-11-------------------------------------------------11-12-
D|----------------------------------------------------14-12-------------------------------------12-14-------
A|----------------------------------------------------------15-14-12-------------------12-14-15-------------
E|-------------------------------------------------------------------15-14-12-12-14-15----------------------

Stave 5:

E|------7-8-10-12-14-15-15-14-12-10-8-7--------------------------------------------------------------
B|-8-10---------------------------------10-8-7---------------------------------------------------7-8-
G|---------------------------------------------9-7-------------------------------------------7-9-----
D|-------------------------------------------------10-9-7-----------------------------7-9-10---------
A|--------------------------------------------------------10-9-7---------------7-9-10----------------
E|---------------------------------------------------------------10-8-7-7-8-10-----------------------

Stave 6:

E|-3-5-7-8-10-12-14-15-15-14-12--------------------------------------------------------------------------------2-3-
B|------------------------------15-13-12-------------------------------------------------------------------3-5-----
G|---------------------------------------14-12-11----------------------------------------------------2-4-5---------
D|------------------------------------------------14-12----------------------------------------2-4-5---------------
A|------------------------------------------------------15-14-12-------------------------2-3-5---------------------
E|---------------------------------------------------------------15-14-12-10-8-7-5-3-3-5---------------------------

http://www.guitartabcreator.com
Guitar Tab Creator is intended to store guitar tab created through the tool. It currently does not support in-line text editing. Any text you place in here will be lost. If you need to comment on your tab, please use the "Tab Notes" section located below.