Sound will begin in 5 seconds

Rock Song

Chords
01234567891011121314151617181920212223
E
B
G
D
A
E
B
0 1 2 3 4 5 6 7 8 9 10 11 12 13 14 15 16 17 18 19 20 21 22 23
(/) Slide Up  (\) Slide Down  (h) Hammer On  (p) Pull Off  (b) Bend (r) Release (v) Vibrato

Stave 1:

E|-----------------------------------------------------------------
B|--------x-----------x--------------------------------------------
G|--7--x--x--x--x--x--x-----x--x-----------x--x--x--x--------------
D|--7--x--x--x--x--x--x--5--x--x-----x--3--x--x--x--x--3--5--3--0--
A|--5--x--x--x--x--x--x--5--x--x--x--x--3--x--x--x--x--3--5--3--0--
D|-----------------------5--x--x--x--x--3--x--x--x--x--3--5--3--0--

Stave 2:

E|------------------------------------------------------------0---0---0---0---
B|------------------------------------------------------------10--10--10--10--
G|--7--7--7--7----------------9--9--9--9--10--10--10--10--11--11--11--11--11--
D|--7--7--7--7--7--7-7--------0--0--0--0--0---0---0---0---0---x---x---x---x---
A|--5--5--5--5--7--7-7--------7--7--7--7--8---8---8---8---9---9---9---9---9---
D|--------------7--7-7--------0--0--0--0--0---0---0---0---0---0---0---0---0---

http://www.guitartabcreator.com
Guitar Tab Creator is intended to store guitar tab created through the tool. It currently does not support in-line text editing. Any text you place in here will be lost. If you need to comment on your tab, please use the "Tab Notes" section located below.