Sound will begin in 5 seconds

I wish my beer was as cold as your heart solo

01234567891011121314151617181920212223
E
B
G
D
A
E
B
0 1 2 3 4 5 6 7 8 9 10 11 12 13 14 15 16 17 18 19 20 21 22 23
Song Science #1: How Pros Use 6 Chords to Write Hit Songs
(/) Slide Up  (\) Slide Down  (h) Hammer On  (p) Pull Off  (b) Bend (r) Release (v) Vibrato

Stave 1:

E|----------------------------------------0--------------------3------------5-----------------------
B|------------0------------3---------0h3----------3-------3h5----------5h8----------8--------10h11--
G|-------2h3----------3h4-----4\2h3----------3/4-----4/6----------6/7----------7/9-----9/12---------
D|--2h5----------5/6--------------------------------------------------------------------------------
A|--------------------------------------------------------------------------------------------------
E|--------------------------------------------------------------------------------------------------

Stave 2:

E|--------------------10----------------12---------------------------15----------------17------19b22--
B|--12---------11h12-------------12h15-------------15---------15h17-------------17h20------17---------
G|------12/14-------------14/15-------------15/16------16/18-------------18/19------------------------
D|----------------------------------------------------------------------------------------------------
A|----------------------------------------------------------------------------------------------------
E|----------------------------------------------------------------------------------------------------

http://www.guitartabcreator.com
Guitar Tab Creator is intended to store guitar tab created through the tool. It currently does not support in-line text editing. Any text you place in here will be lost. If you need to comment on your tab, please use the "Tab Notes" section located below.