Sound will begin in 5 seconds

Undertale Last Goodbye Part 2

01234567891011121314151617181920212223
E
B
G
D
A
E
B
0 1 2 3 4 5 6 7 8 9 10 11 12 13 14 15 16 17 18 19 20 21 22 23
Song Science #1: How Pros Use 6 Chords to Write Hit Songs
(/) Slide Up  (\) Slide Down  (h) Hammer On  (p) Pull Off  (b) Bend (r) Release (v) Vibrato

Stave 1:

E|--------------------------------------------------------------------------------------------
B|--7--------------------------------------5--4--5--4-----------7-----------------------------
G|-----4--6--4-----4--6--8--6--4-----4--6--------------6--4--------4--6--4-----4--6--8--6--4--
D|--------------4-----------------4--------------------------4--------------4-----------------
A|--------------------------------------------------------------------------------------------
E|--------------------------------------------------------------------------------------------

Stave 2:

E|--------7--6-----------------------
B|--7-----------7--4-----------------
G|-----4--------------6--4--6--4-----
D|--------------------------------4--
A|-----------------------------------
E|-----------------------------------

Stave 3:

E|--------------------------4-----------4-----------7-----------7-----------9------------
B|--7--4--5--4--7--4--5--4-----4--5--4-----4--5--4-----5--7--5-----5--7--5-----7--9--12--
G|---------------------------------------------------------------------------------------
D|---------------------------------------------------------------------------------------
A|---------------------------------------------------------------------------------------
E|---------------------------------------------------------------------------------------

Stave 4:

E|--11--12--11--9--7--0--14--0--11--0--7--0--9--0--0--0--9--0--6--0--4--------4--7--12--11--7--
B|----------------------------------------------------------------------5--7-------------------
G|---------------------------------------------------------------------------------------------
D|---------------------------------------------------------------------------------------------
A|---------------------------------------------------------------------------------------------
E|---------------------------------------------------------------------------------------------

Stave 5:

E|--9---------------------------------------------------------------------------------------
B|-----8--9--4--5--4-----------7--4--------4------------------------------------------------
G|--------------------6--3--4--------4--6-----6--4--11--11--11--11--11--11--11--11--11--11--
D|------------------------------------------------------------------------------------------
A|------------------------------------------------------------------------------------------
E|------------------------------------------------------------------------------------------

Stave 6:

E|-----------------------
B|-----5--4-----5--4-----
G|--4--------4--------4--
D|-----------------------
A|-----------------------
E|-----------------------

http://www.guitartabcreator.com
Guitar Tab Creator is intended to store guitar tab created through the tool. It currently does not support in-line text editing. Any text you place in here will be lost. If you need to comment on your tab, please use the "Tab Notes" section located below.