First song

Chords

01234567891011121314151617181920212223
E
B
G
D
A
E
B
0 1 2 3 4 5 6 7 8 9 10 11 12 13 14 15 16 17 18 19 20 21 22 23
(/) Slide Up  (\) Slide Down  (h) Hammer On  (p) Pull Off  (b) Bend (r) Release (v) Vibrato

Stave 1:

E|-----------------------
B|-----------------------
G|-----------------------
D|--2--5--7--5--7--7--4--
A|--0--3--5--3--5--5--2--
E|-----------------------

Stave 2:

E|--------------------------------------------
B|--------------------------------------------
G|--------------------------------------------
D|--------------5--------7--5-----------------
A|--0--3--5--7-----7--5-----------7--5--3--0--
E|-----------------------------7--------------

Stave 3:

E|---------------------------
B|---------------------------
G|---------------------------
D|---------------------7--9--
A|---------------5--7--------
E|--0--3--5v--7--------------

Stave 4:

E|------------------------------
B|------------------------------
G|--------------10--------------
D|--12--10----------12--10--12--
A|----------12------------------
E|------------------------------

Stave 5:

E|-----------------------------------------------
B|--15--13------13--------------13---------------
G|----------15------15--13-----------------------
D|--------------------------15------15--13--15v--
A|-----------------------------------------------
E|-----------------------------------------------

							http://www.guitartabcreator.com
Instruments
{"strings":[[[".",".",".",".",".",".","."],[".",".",".",".",".",".","."],[".",".",".",".",".",".","."],[2,5,7,5,7,7,4],[0,3,5,3,5,5,2],[".",".",".",".",".",".","."]],[[".",".",".",".",".",".",".",".",".",".",".",".",".","."],[".",".",".",".",".",".",".",".",".",".",".",".",".","."],[".",".",".",".",".",".",".",".",".",".",".",".",".","."],[".",".",".",".",5,".",".",7,5,".",".",".",".","."],[0,3,5,7,".",7,5,".",".",".",7,5,3,0],[".",".",".",".",".",".",".",".",".",7,".",".",".","."]],[[".",".",".",".",".",".",".",".","."],[".",".",".",".",".",".",".",".","."],[".",".",".",".",".",".",".",".","."],[".",".",".",".",".",".",".",7,9],[".",".",".",".",".",5,7,".","."],[0,3,5,"v",7,".",".",".","."]],[[".",".",".",".",".",".","."],[".",".",".",".",".",".","."],[".",".",".",10,".",".","."],[12,10,".",".",12,10,12],[".",".",12,".",".",".","."],[".",".",".",".",".",".","."]],[[".",".",".",".",".",".",".",".",".",".",".","."],[15,13,".",13,".",".",".",13,".",".",".","."],[".",".",15,".",15,13,".",".",".",".",".","."],[".",".",".",".",".",".",15,".",15,13,15,"v"],[".",".",".",".",".",".",".",".",".",".",".","."],[".",".",".",".",".",".",".",".",".",".",".","."]]],"numberofstrings":6,"notes":["E","B","G","D","A","E","B"],"capo":0,"stringnotes":["E4","B3","G3","D3","A2","E2"],"comments":["Stave 1:","Stave 2:","Stave 3:","Stave 4:","Stave 5:"],"timing":[[null,null,null,null,null,null,"W","W","W"],[null,null,null,null,null,null,null,null,null,null,null,null,null,null],["W","W","W",null,"W","W","W","W","W"],["W","W","W","W","W","W","W"],["W","W","W","W","W","W","W","W","W","W","W"]],"timingvisible":false,"tabcounter":6,"stave":0,"totalstaves":5,"instrument":"6guitar","selectedtuning":"6_standard","version":"13"}

Member for

1 week 6 days
Submitted by metalslayer1 on Sun, 2020-06-28 14:42