Sound will begin in 5 seconds

Vrolok 1

Chords
01234567891011121314151617181920212223
E
B
G
D
A
E
B
0 1 2 3 4 5 6 7 8 9 10 11 12 13 14 15 16 17 18 19 20 21 22 23
Song Science #1: How Pros Use 6 Chords to Write Hit Songs
(/) Slide Up  (\) Slide Down  (h) Hammer On  (p) Pull Off  (b) Bend (r) Release (v) Vibrato

Stave 1:

E|--------------------------------------------------
B|--------------------------------------------------
G|--------------------------------------------------
D|--5--5--5--5--4--4--4--4--5--5--5--5--7--7--6--6--
A|--3--3--3--3--2--2--2--2--3--3--3--3--5--5--4--4--
E|--------------------------------------------------

Stave 2:

E|--------------------------------------------------
B|--------------------------------------------------
G|--------------------------------------------------
D|--5--5--5--5--4--4--4--4--5--5--5--5--7--7--6--6--
A|--7--7--7--7--6--6--6--6--7--7--7--7--9--9--8--8--
E|--------------------------------------------------

Stave 3:

E|----------------------------------------------------------
B|----------------------------------------------------------
G|--7--7--7--7--7--7--7--7--10--10--10--10--10--10--10--10--
D|--9--9--9--9--9--9--9--9--9---9---9---9---9---9---9---9---
A|----------------------------------------------------------
E|----------------------------------------------------------

Stave 4:

E|--------------------------
B|--------------------------
G|--6--6--6--6--9--9--9--9--
D|--8--8--8--8--8--8--8--8--
A|--------------------------
E|--------------------------

Stave 5:

E|--------------------------------------------------------
B|--------------------------------------------------------
G|--7-----------7-----------6-----------5-----------4-----
D|-----7-----------7-----------6-----------5-----------4--
A|--------7--7--------6--6--------5--5--------4--4--------
E|--------------------------------------------------------

Stave 6:

E|------------------------------------------------------
B|------------------------------------------------------
G|------------------------------------------------------
D|------------------------------------------------------
A|--9--9--10--10--9--9--10--10--10--9--9--10--10--9--9--
E|--7--7--7---7---7--7--7---8---8---8--8--8---8---8--8--

Stave 7:

E|---------------------------------------------------------------------------------------------------------------------------------------------------
B|---------------------------------------------------------------------------------------------------------------------------------------------------
G|--10--10--9--9--7--7--10--10--9--9--7--7--------------------------------------10--10--9--9--7--7--10--10--9--9--12--12--9--9-----------------------
D|--0---0---0--0--0--0--0---0---0--0--0--0--5--5--3--3--2--2--5--5--3--3--2--2--0---0---0--0--0--0--0---0---0--0--0---0---0--0--5--5--3--3--2--2--5--
A|------------------------------------------0--0--0--0--0--0--0--0--0--0--0--0--------------------------------------------------0--0--0--0--0--0--0--
E|---------------------------------------------------------------------------------------------------------------------------------------------------

Stave 8:

E|-----------------
B|-----------------
G|-----------------
D|--5--3--3--2--2--
A|--0--0--0--0--0--
E|-----------------

Stave 9:

E|--------------------------------------------------
B|--------------------------------------------------
G|--------------------------------------------------
D|--3--3--4--4--3--3--4--4--3--3--4--4--5--5--4--4--
A|--4--4--5--5--4--4--5--5--4--4--5--5--6--6--5--5--
E|--5--5--6--6--5--5--6--6--5--5--6--6--7--7--6--6--

Stave 10:

E|-----------------------------------------------------
B|-----------------------------------------------------
G|-----------------------------------------------------
D|-----3--3--4--4--3--3--4--4--3--3--4--4--3--3--2--2--
A|-----4--4--5--5--4--4--5--5--4--4--5--5--4--4--3--3--
E|-----5--5--6--6--5--5--6--6--5--5--6--6--5--5--4--4--

Stave 11:

E|--------------------------------------------------------------
B|--------------------------------------------------------------
G|--------------------------------------------------------------
D|--------------------------------------------------------------
A|--10--10--9--9--12--12--10--10--9--9--7--7--9--9--7--7--5--5--
E|--7---7---7--7--9---9---9---9---9--9--7--7--7--7--7--7--5--5--

Stave 12:

E|----------------------------------------------------------------------
B|----------------------------------------------------------------------
G|----------------------------------------------------------------------
D|--11--11--9--9--7--7--9--9--11--11--9--9--7--7--9--9--12--12--11--11--
A|--9---9---7--7--5--5--7--7--9---9---7--7--5--5--7--7--10--10--9---9---
E|----------------------------------------------------------------------

Stave 13:

E|--------------------------------------------------------------
B|--------------------------------------------------------------
G|--------------------------------------------------------------
D|--------------------------------------------------------------
A|--9--9--7--7--5--5--7--7--9--9--7--7--5--5--7--7--4--4--3--3--
E|--0--0--0--0--0--0--0--0--0--0--0--0--0--0--0--0--0--0--0--0--

Stave 14:

E|--------------------------------------------------
B|--------------------------------------------------
G|--------------------------------------------------
D|--------------------------------------------------
A|--6--6--5--5--6--6--5--5--4--4--3--3--4--4--3--3--
E|--8--8--7--7--8--8--7--7--6--6--5--5--6--6--5--5--

Stave 15:

E|--------------------------------------------------------------------------
B|--------------------------------------------------------------------------
G|--------------------------------------------------------------------------
D|--------------------------------------------------------------------------
A|--4--4--3--3--4--4--6--6--4--4--3--3--2--2--1--1--2--2--4--4--2--2--1--1--
E|--6--6--5--5--6--6--8--8--6--6--5--5--4--4--3--3--4--4--6--6--4--4--3--3--

Stave 16:

E|--------------------------
B|--------------------------
G|--------------------------
D|--------------------------
A|--6--6--1--1--4--4--5--4--
E|--8--8--3--3--6--6--7--6--

http://www.guitartabcreator.com
Guitar Tab Creator is intended to store guitar tab created through the tool. It currently does not support in-line text editing. Any text you place in here will be lost. If you need to comment on your tab, please use the "Tab Notes" section located below.