Sound will begin in 5 seconds

Space Enough To Grow

01234567891011121314151617181920212223
E
B
G
D
A
E
B
0 1 2 3 4 5 6 7 8 9 10 11 12 13 14 15 16 17 18 19 20 21 22 23
Song Science #1: How Pros Use 6 Chords to Write Hit Songs
(/) Slide Up  (\) Slide Down  (h) Hammer On  (p) Pull Off  (b) Bend (r) Release (v) Vibrato

Stave 1:

E|-------------------
B|-------------------
G|-------------------
D|-----2-----5--5/7--
A|--0-----3----------
E|-------------------

Stave 2:

E|------------------------------------------------------------------
B|------------------------------------------------------------------
G|------------------------------------------------------------------
D|-----5--0--2--5----------7--------5--0--2--5----------7--5--4--0--
A|-----------------5--5/7-----2-----------------5--5/7--------------
E|--0----------------------------0----------------------------------

Stave 3:

E|-----------------------------------------------------------------------
B|-----------------------------------------------------------------------
G|-----------------------------------------------------------------------
D|-----0--0--2--2--------0--5------------5--0--2--5----------7--5--4--0--
A|-----------------0--2--------2h3p2-----------------5--5/7--------------
E|--3---------------------------------0----------------------------------

http://www.guitartabcreator.com
Guitar Tab Creator is intended to store guitar tab created through the tool. It currently does not support in-line text editing. Any text you place in here will be lost. If you need to comment on your tab, please use the "Tab Notes" section located below.