Sound will begin in 5 seconds

Song For You

Chords
01234567891011121314151617181920212223
E
B
G
D
A
E
B
0 1 2 3 4 5 6 7 8 9 10 11 12 13 14 15 16 17 18 19 20 21 22 23
Song Science #1: How Pros Use 6 Chords to Write Hit Songs
(/) Slide Up  (\) Slide Down  (h) Hammer On  (p) Pull Off  (b) Bend (r) Release (v) Vibrato

Stave 1:

E|--------------------------------------------------------------------------------------------
B|-----------------------------------------------------------------------------------2--------
G|-----------------------------------------------------------------------------------2-----1--
D|--------------------------2-----0-----------------------------------------2--------2-----2--
A|--------------------------------------4-----2--------------------------------------0-----2--
E|--0-----------0--2--3--4-----------------------2--3--0--------0--2--3--4-----------------0--

Stave 2:

E|--------------------------------------------------------------------------------2-----2-----
B|--------------------------------------------------------------------------------3--2--3--2--
G|--------------------------------------------------------------------------------2--2--2--2--
D|-----------------------2-----0-----------------------------------------2--------0--2--0--2--
A|-----------------------------------4-----2-----------------------------------------0-----0--
E|--0--------0--2--3--4-----------------------2--3--0--------0--2--3--4-----------------------

Stave 3:

E|--------------------------------------------------------------------------------
B|--------------------------------------------------------------------------------
G|--------------------------------------------------------------------------------
D|--------2--4-----2--------------------------------2--4-----2--------------------
A|--2--4-----------------4--2--0--------------2--4-----------------4--2--0--------
E|--------------------------------2-----0-----------------------------------2--0--

Stave 4:

E|-----------------------------------------------------------------------------12--14--
B|---------------------------------------------------------------------12--14----------
G|-----------------------------------------------------9--11-----9---------------------
D|------------------------------9--11-----9-----9--11----------------------------------
A|--------7--9-----7-----9--11---------------------------------------------------------
E|--7--9-------------------------------------------------------------------------------

Stave 5:

E|--
B|--
G|--
D|--
A|--
E|--

http://www.guitartabcreator.com
Guitar Tab Creator is intended to store guitar tab created through the tool. It currently does not support in-line text editing. Any text you place in here will be lost. If you need to comment on your tab, please use the "Tab Notes" section located below.