Sound will begin in 5 seconds

Psalm 66 (You Are Great

Chords
01234567891011121314151617181920212223
E
B
G
D
A
E
B
0 1 2 3 4 5 6 7 8 9 10 11 12 13 14 15 16 17 18 19 20 21 22 23
(/) Slide Up  (\) Slide Down  (h) Hammer On  (p) Pull Off  (b) Bend (r) Release (v) Vibrato

Stave 1:

E|--------2--------2--4--5--------------2--------2--4--5--5--------4--
B|--------3--------------7--------7--5--3--------------5--5--5--5--5--
G|--------2--------------6--------------2--------------6-----7--6--4--
D|--7--6--4--------------------------------------------7-----------6--
A|--------------------------------------------------------------------
E|--------------------------------------------------------------------

Stave 2:

E|--------------------------------------------2--------------------------------------
B|--2-----------5--2-----3-----------5--3-----2-----------5--2-----3-----------5--3--
G|--2--------2-----------2--------2-----------2--------2-----------2--------2--------
D|--2-----2--------------4-----4--------------4-----4--------------4-----4-----------
A|--0--------------------------------------------------------------------------------
E|-----------------------------------------------------------------------------------

Stave 3:

E|--------------5p4-----5p4-----
B|--------5----------5-------5--
G|--4---------------------------
D|------------------------------
A|------------------------------
E|------------------------------

Stave 4:

E|--9--------
B|--------7--
G|-----------
D|-----------
A|-----------
E|-----------

http://www.guitartabcreator.com
Guitar Tab Creator is intended to store guitar tab created through the tool. It currently does not support in-line text editing. Any text you place in here will be lost. If you need to comment on your tab, please use the "Tab Notes" section located below.