Sound will begin in 5 seconds

Open Up The Heavens -A - RIFFS

Chords
01234567891011121314151617181920212223
E
B
G
D
A
E
B
0 1 2 3 4 5 6 7 8 9 10 11 12 13 14 15 16 17 18 19 20 21 22 23
(/) Slide Up  (\) Slide Down  (h) Hammer On  (p) Pull Off  (b) Bend (r) Release (v) Vibrato

Stave 1:

E|--9--9-----7-----5--------9--9-----7-----5--------9--9-----7-----10--------9--9-----7-----10--
B|----------------------------------------------------------------------------------------------
G|----------------------------------------------------------------------------------------------
D|----------------------------------------------------------------------------------------------
A|----------------------------------------------------------------------------------------------
E|----------------------------------------------------------------------------------------------

Stave 2:

E|----------------------------------------------------
B|--14--14-----12-----10--------14--14-----12-----15--
G|----------------------------------------------------
D|--11--11-----9------7---------11--11-----9------12--
A|--0---0------0------0---------0---0------0------0---
E|----------------------------------------------------

Stave 3:

E|----------------------------------------------------------
B|--9--9--9--9-----7-----5--------9--9--9--9-----10-----12--
G|----------------------------------------------------------
D|----------------------------------------------------------
A|----------------------------------------------------------
E|----------------------------------------------------------

Stave 4:

E|-------------------------------------------------------------------------------------------
B|--10--10--10--------------10--10-----10--12--------10--10--10-----------10--10-----10--12--
G|-----------------9----------------9-------------------------------9-------------9----------
D|-------------------------------------------------------------------------------------------
A|-------------------------------------------------------------------------------------------
E|-------------------------------------------------------------------------------------------

Stave 5:

E|------------------------------------
B|--7--7--7--7-----9--9--9--9-----10--
G|------------------------------------
D|------------------------------------
A|------------------------------------
E|------------------------------------

http://www.guitartabcreator.com
Guitar Tab Creator is intended to store guitar tab created through the tool. It currently does not support in-line text editing. Any text you place in here will be lost. If you need to comment on your tab, please use the "Tab Notes" section located below.