Sound will begin in 5 seconds

Jelly Jelly

01234567891011121314151617181920212223
E
B
G
D
A
E
B
0 1 2 3 4 5 6 7 8 9 10 11 12 13 14 15 16 17 18 19 20 21 22 23
Song Science #1: How Pros Use 6 Chords to Write Hit Songs
(/) Slide Up  (\) Slide Down  (h) Hammer On  (p) Pull Off  (b) Bend (r) Release (v) Vibrato

Stave 1:

E|--------------------|------------------------|-------------------------
B|--16b18--18b16--13--|------16--18b20--18b20--|--13--16--16b18--16--13--
G|--------------------|--17--------------------|-------------------------
D|--------------------|------------------------|-------------------------
A|--------------------|------------------------|-------------------------
E|--------------------|------------------------|-------------------------

Stave 2:

E|-----------------------------------------------------------
B|--16p13--16p13--16p13--16b18--18b16--13----------------13--
G|-----------------------------------------------------------
D|-----------------------------------------17\15--13h14------
A|-----------------------------------------------------------
E|-----------------------------------------------------------

Stave 3:

E|------------------15--18--18b20--20b18p15--18b20--20--20b18p15--18b20--20--20b18p15--
B|--13--15--17--18---------------------------------------------------------------------
G|-------------------------------------------------------------------------------------
D|-------------------------------------------------------------------------------------
A|-------------------------------------------------------------------------------------
E|-------------------------------------------------------------------------------------

Stave 4:

E|-------------------------------------------------------------|---------------------
B|---------------------------------------------------------16--|-----------------16--
G|--15h17--17--15h17--17--15h17--17---------15h17--17--17------|--15h17--17--17------
D|-------------------------------------------------------------|---------------------
A|-----------------------------------17\15---------------------|---------------------
E|-------------------------------------------------------------|---------------------

Stave 5:

E|---------------------------------------
B|--16h22p16h22p16h22p16--18b20--18--16--
G|---------------------------------------
D|---------------------------------------
A|---------------------------------------
E|---------------------------------------

http://www.guitartabcreator.com
Guitar Tab Creator is intended to store guitar tab created through the tool. It currently does not support in-line text editing. Any text you place in here will be lost. If you need to comment on your tab, please use the "Tab Notes" section located below.