Sound will begin in 5 seconds

Famous One - RIFFS

Chords
01234567891011121314151617181920212223
E
B
G
D
A
E
B
0 1 2 3 4 5 6 7 8 9 10 11 12 13 14 15 16 17 18 19 20 21 22 23
(/) Slide Up  (\) Slide Down  (h) Hammer On  (p) Pull Off  (b) Bend (r) Release (v) Vibrato

Stave 1:

E|--------------------------------------------------------------------------------
B|--7-----4-----5--------7-----4-----5--------5-----2-----3--------5-----2-----3--
G|--------------------------------------------------------------------------------
D|--------------------------------------------------------------------------------
A|--------------------------------------------------------------------------------
E|--------------------------------------------------------------------------------

Stave 2:

E|------12------11------11-----9-----7--
B|--------------------------------------
G|--13------13------11------9-----9--8--
D|--------------------------------------
A|--------------------------------------
E|--------------------------------------

Stave 3:

E|-----------------------9-----7--
B|-----5--------7-----------------
G|--2-----2--4-----4--9-----9--8--
D|--------------------------------
A|--------------------------------
E|--------------------------------

Stave 4:

E|--
B|--
G|--
D|--
A|--
E|--

http://www.guitartabcreator.com
Guitar Tab Creator is intended to store guitar tab created through the tool. It currently does not support in-line text editing. Any text you place in here will be lost. If you need to comment on your tab, please use the "Tab Notes" section located below.