Sound will begin in 5 seconds

Exogenesis Part 1

01234567891011121314151617181920212223
E
B
G
D
A
E
B
0 1 2 3 4 5 6 7 8 9 10 11 12 13 14 15 16 17 18 19 20 21 22 23
Song Science #1: How Pros Use 6 Chords to Write Hit Songs
(/) Slide Up  (\) Slide Down  (h) Hammer On  (p) Pull Off  (b) Bend (r) Release (v) Vibrato

Stave 1:

E|---------------------------------------|---------------------------------------
B|---------------------------------------|---------------------------------------
G|--------------6--9--10--9--6-----------|--------------6--9--10--9--6-----------
D|-----------7------------------7--------|-----------7------------------7--------
A|--0--4--7------------------------7--4--|--0--4--7------------------------7--4--
E|---------------------------------------|---------------------------------------

Stave 2:

E|--------------------------------------|--------------------------------------
B|--------------------8-----------------|--------------------8-----------------
G|--------------5--8-----8--5-----------|--------------5--8-----8--5-----------
D|-----------7-----------------7--------|-----------5-----------------5--------
A|--0--3--6-----------------------6--3--|--0--3--6-----------------------6--3--
E|--------------------------------------|--------------------------------------

Stave 3:

E|--------------------------------------|--------------------------------------
B|--------------------8-----------------|--------------------8-----------------
G|-----------------7-----7--------------|-----------------7-----7--------------
D|--------5--7--8-----------8--7--5-----|--------5--7--8-----------8--7--5-----
A|-----5-----------------------------5--|-----5-----------------------------5--
E|--6-----------------------------------|--6-----------------------------------

Stave 4:

E|--------------------------------------|--------------------------------------
B|-----------------5--8--5--------------|-----------------5--8--5--------------
G|--------------6-----------6-----------|--------------6-----------6-----------
D|--------5--8-----------------8--5-----|--------5--8-----------------8--5-----
A|-----7-----------------------------7--|-----7-----------------------------7--
E|--6-----------------------------------|--6-----------------------------------

Stave 5:

E|-----------------5-----------------|-----------------5-----------------
B|--------------6-----6--------------|--------------6-----6--------------
G|-----------7-----------7-----------|-----------7-----------7-----------
D|--------7-----------------7--------|--------7-----------------7--------
A|--5--8-----------------------8--5--|--5--8-----------------------8--5--
E|-----------------------------------|-----------------------------------

Stave 6:

E|-----------------5-----------------|-----------------5-----------------
B|--------------5-----5--------------|--------------5-----5--------------
G|-----------6-----------6-----------|-----------6-----------6-----------
D|--------7-----------------7--------|--------7-----------------7--------
A|--4--7-----------------------7--4--|--4--7-----------------------7--4--
E|-----------------------------------|-----------------------------------

Stave 7:

E|-----------------6-----------------|-----------------6-----------------
B|--------------8-----8--------------|--------------8-----8--------------
G|-----------7-----------7-----------|-----------7-----------7-----------
D|-----5--8-----------------8--5-----|-----5--8-----------------8--5-----
A|--5-----------------------------5--|--5-----------------------------5--
E|-----------------------------------|-----------------------------------

Stave 8:

E|-----------------5-----------------|-----------------5-----------------
B|--------------6-----6--------------|--------------6-----6--------------
G|-----------7-----------7-----------|-----------7-----------7-----------
D|--------7-----------------7--------|--------7-----------------7--------
A|--5--8-----------------------8--5--|--5--8-----------------------8--5--
E|-----------------------------------|-----------------------------------

Stave 9:

E|--------------------------------------|--------------------------------------
B|--------------------5-----------------|--------------------5-----------------
G|--------------5--7-----7--5-----------|--------------5--7-----7--5-----------
D|-----------5-----------------5--------|-----------5-----------------5--------
A|--3--5--7-----------------------7--5--|--3--5--7-----------------------7--5--
E|--------------------------------------|--------------------------------------

Stave 10:

E|--------------------------------------|--------------------------------------
B|--------------------------------------|--------------------------------------
G|-----------------7--9--7--------------|-----------------7--9--7--------------
D|--------5--7--8-----------8--7--5-----|--------5--7--8-----------8--7--5-----
A|-----5-----------------------------5--|-----5-----------------------------5--
E|--6-----------------------------------|--6-----------------------------------

Stave 11:

E|--------------------------------------|--------------------------------------
B|-----------------5--6--5--------------|-----------------5--6--5--------------
G|--------------6-----------6-----------|--------------6-----------6-----------
D|-----------7-----------------7--------|-----------7-----------------7--------
A|-----4--7-----------------------7--4--|-----4--7-----------------------7--4--
E|--5-----------------------------------|--5-----------------------------------

Stave 12:

E|--------------------------------------|--------------------------------------
B|--------------------8-----------------|--------------------8-----------------
G|--------------5--8-----8--5-----------|--------------5--8-----8--5-----------
D|-----------7-----------------7--------|-----------5-----------------5--------
A|-----3--6-----------------------6--3--|-----3--6-----------------------6--3--
E|--5-----------------------------------|--5-----------------------------------

Stave 13:

E|--------------------------------------|--------------------------------------
B|--------------------8-----------------|--------------------8-----------------
G|-----------------7-----7--------------|-----------------7-----7--------------
D|--------5--7--8-----------8--7--5-----|--------5--7--8-----------8--7--5-----
A|-----5-----------------------------5--|-----5-----------------------------5--
E|--6-----------------------------------|--6-----------------------------------

Stave 14:

E|--------------------------------------|--------------------------------------
B|-----------------5--8--5--------------|-----------------5--8--5--------------
G|--------------6-----------6-----------|--------------6-----------6-----------
D|--------5--8-----------------8--5-----|--------5--8-----------------8--5-----
A|-----7-----------------------------7--|-----7-----------------------------7--
E|--6-----------------------------------|--6-----------------------------------

Stave 15:

E|-----------------5-----------------|-----------------5-----------------
B|--------------6-----6--------------|--------------6-----6--------------
G|-----------7-----------7-----------|-----------7-----------7-----------
D|--------7-----------------7--------|--------7-----------------7--------
A|--5--8-----------------------8--5--|--5--8-----------------------8--5--
E|-----------------------------------|-----------------------------------

Stave 16:

E|-----------------5-----------------|-----------------5-----------------
B|--------------5-----5--------------|--------------5-----5--------------
G|-----------6-----------6-----------|-----------6-----------6-----------
D|--------7-----------------7--------|--------7-----------------7--------
A|--4--7-----------------------7--4--|--4--7-----------------------7--4--
E|-----------------------------------|-----------------------------------

Stave 17:

E|-----------------6-----------------|-----------------6-----------------
B|--------------8-----8--------------|--------------8-----8--------------
G|-----------7-----------7-----------|-----------7-----------7-----------
D|-----5--8-----------------8--5-----|-----5--8-----------------8--5-----
A|--5-----------------------------5--|--5-----------------------------5--
E|-----------------------------------|-----------------------------------

Stave 18:

E|-----------------5-----------------|-----------------5-----------------
B|--------------6-----6--------------|--------------6-----6--------------
G|-----------7-----------7-----------|-----------7-----------7-----------
D|--------7-----------------7--------|--------7-----------------7--------
A|--5--8-----------------------8--5--|--5--8-----------------------8--5--
E|-----------------------------------|-----------------------------------

Stave 19:

E|-----------------------------------------|-----------------------------------------
B|--------------------5--------------------|--------------------5--------------------
G|--------------5--7-----7--5--------------|--------------5--7-----7--5--------------
D|-----------5-----------------5-----------|-----------5-----------------5-----------
A|--3--5--7-----------------------7--5--3--|--3--5--7-----------------------7--5--3--
E|-----------------------------------------|-----------------------------------------

Stave 20:

E|--------------------------------------|--------------------------------------
B|--------------------------------------|--------------------------------------
G|-----------------7--9--7--------------|-----------------7--9--7--------------
D|--------5--7--8-----------8--7--5-----|--------5--7--8-----------8--7--5-----
A|-----5-----------------------------5--|-----5-----------------------------5--
E|--6-----------------------------------|--6-----------------------------------

Stave 21:

E|--------------------------------------|--------------------------------------
B|--------------------5-----------------|--------------------5-----------------
G|--------------5--7-----7--5-----------|--------------5--7-----7--5-----------
D|-----------5-----------------5--------|-----------5-----------------5--------
A|--3--5--7-----------------------7--5--|--3--5--7-----------------------7--5--
E|--------------------------------------|--------------------------------------

Stave 22:

E|--------------------------------------|--------------------------------------
B|--------------------------------------|--------------------------------------
G|-----------------7--9--7--------------|-----------------7--9--7--------------
D|--------5--7--8-----------8--7--5-----|--------5--7--8-----------8--7--5-----
A|-----5-----------------------------5--|-----5-----------------------------5--
E|--6-----------------------------------|--6-----------------------------------

Stave 23:

E|--------------------------------------|--------------------------------------
B|-----------------5--6--5--------------|-----------------5--6--5--------------
G|--------------6-----------6-----------|--------------6-----------6-----------
D|-----------7-----------------7--------|-----------7-----------------7--------
A|-----4--7-----------------------7--4--|-----4--7-----------------------7--4--
E|--5-----------------------------------|--5-----------------------------------

Stave 24:

E|--------------------------------------|--------------------------------------
B|--------------------8-----------------|--------------------8-----------------
G|--------------5--8-----8--5-----------|--------------5--8-----8--5-----------
D|-----------7-----------------7--------|-----------7-----------------7--------
A|-----3--6-----------------------6--3--|-----3--6-----------------------6--3--
E|--5-----------------------------------|--5-----------------------------------

Stave 25:

E|--------------------------------------|--------------------------------------
B|--------------------8-----------------|--------------------8-----------------
G|-----------------7-----7--------------|-----------------7-----7--------------
D|--------5--7--8-----------8--7--5-----|--------5--7--8-----------8--7--5-----
A|-----5-----------------------------5--|-----5-----------------------------5--
E|--6-----------------------------------|--6-----------------------------------

Stave 26:

E|--------------------------------------|--------------------------------------|-----
B|-----------------5--8--5--------------|-----------------5--8--5--------------|-----
G|--------------6-----------6-----------|--------------6-----------6-----------|-----
D|--------5--8-----------------8--5-----|--------5--8-----------------8--5-----|-----
A|-----7-----------------------------7--|-----7-----------------------------7--|--5--
E|--6-----------------------------------|--6-----------------------------------|-----

http://www.guitartabcreator.com
Guitar Tab Creator is intended to store guitar tab created through the tool. It currently does not support in-line text editing. Any text you place in here will be lost. If you need to comment on your tab, please use the "Tab Notes" section located below.