Safe and Sound Tab

Chords

01234567891011121314151617181920212223
E
B
G
D
A
E
B
0 1 2 3 4 5 6 7 8 9 10 11 12 13 14 15 16 17 18 19 20 21 22 23
(/) Slide Up  (\) Slide Down  (h) Hammer On  (p) Pull Off  (b) Bend (r) Release (v) Vibrato

Capo Fret 7

Stave 1:

E|--------1p0--------------------------------------------------------------------1p0-----------------------------------------------
B|--------3----------------1-----------------------------------------1-----------3----------------1-----------1-----------1--------
G|-----2-------------------2-----0h2--2--2--0-------------0-------0-----------2-------------------2-----2-----------0-----0--------
D|--0----------0--------2--------3-------3--------0h2--2-------------------0----------0--------2--------3--3-----3-----------------
A|-------------------0----------------------------3----------0h2----------------------------0-----------------------------3--------
E|---------------------------------------------------------------------------------------------------------------------------------

Stave 2:

E|--0h1--------1p0-----------------------------------------------------------------------1p0--------------------------------------
B|-------------3----------------1--------------------------------------------1-----------3----------------1--------------1--------
G|----------2-------------------2--------0h2--2--2--0-------------0-------0-----------2-------------------2--------2-----------0--
D|--0----0----------0--------2-----2-----3-------3--------0h2--2-------------------0----------0--------2-----2-----3--3-----3-----
A|------------------------0-------------------------------3----------0h2----------------------------0-----------------------------
E|--------------------------------------------------------------------------------------------------------------------------------

Stave 3:

E|--------0--------------1p0-----------------------------------------------0--------0h1--------1p0-------------------------------------
B|--1-----1--------------3----------------1--------------1-----------1-----1-------------------3----------------1----------------------
G|--0-----------------2-------------------2--------2-----------0-----0----------------------2-------------------2--------0h2--2--2--0--
D|-----2-----2-----0----------0--------2-----2-----3--3-----3-----------2-----2-----0----0----------0--------2-----2-----3-------3-----
A|--3-------------------------------0--------------------------------3------------------------------------0----------------------------
E|-------------------------------------------------------------------------------------------------------------------------------------

Stave 4:

E|---------------------------0h1--------1p0-----------------------------------------------------------------------------------
B|---------------------1----------------3----------------1--------------------------------------------1-----------0-----------
G|----------0-------0----------------2-------------------2--------0h2--2--2--0-------------0-------0--------------0-----0-----
D|--0h2--2-------------------0----0----------0--------2-----2-----3-------3--------0h2--2----------------------0-----0--------
A|--3----------0h2---------------------------------0-------------------------------3----------0h2-----------3-----------------
E|----------------------------------------------------------------------------------------------------------------------------

Stave 5:

E|--------------------------0--------------
B|--1-----3-----------1--3-----------------
G|-----------------2-----------------------
D|--2--2-----2-----3-----------2-----------
A|-----------------------------------------
E|-----------------------------------------

							http://www.guitartabcreator.com
Instruments
{"strings":[[[".",".",1,"p",0,".","_",".",".",".","_",".",".",".",".",".",".","_",".",".",".",".",".",".",".",".",".",".","_",".",".",1,"p",0,".","_",".",".",".","_",".",".",".",".",".","_",".","_","_"],[".",".",3,".",".",".","_",".",".",1,"_",".",".",".",".",".",".","_",".",".",".",".",".",".",".",".",".",1,"_",".",".",3,".",".",".","_",".",".",1,"_",".",".",1,".",".","_",1,"_","_"],[".",2,".",".",".",".","_",".",".",2,"_",0,"h",2,2,2,0,"_",".",".",".",".",0,".",".",".",0,".","_",".",2,".",".",".",".","_",".",".",2,"_",2,".",".",".",0,"_",0,"_","_"],[0,".",".",".",".",0,"_",".",2,".","_",3,".",".",".",3,".","_",0,"h",2,2,".",".",".",".",".",".","_",0,".",".",".",".",0,"_",".",2,".","_",3,3,".",3,".","_",".","_","_"],[".",".",".",".",".",".","_",0,".",".","_",".",".",".",".",".",".","_",3,".",".",".",".",0,"h",2,".",".","_",".",".",".",".",".",".","_",0,".",".","_",".",".",".",".",".","_",3,"_","_"],[".",".",".",".",".",".","_",".",".",".","_",".",".",".",".",".",".","_",".",".",".",".",".",".",".",".",".",".","_",".",".",".",".",".",".","_",".",".",".","_",".",".",".",".",".","_",".","_","_"]],[[0,"h",1,".",".",1,"p",0,".","_",".",".",".",".","_",".",".",".",".",".",".","_",".",".",".",".",".",".",".",".",".",".","_",".",".",1,"p",0,".","_",".",".",".",".","_",".",".",".",".","."],[".",".",".",".",".",3,".",".",".","_",".",".",1,".","_",".",".",".",".",".",".","_",".",".",".",".",".",".",".",".",".",1,"_",".",".",3,".",".",".","_",".",".",1,".","_",".",".",1,".","."],[".",".",".",".",2,".",".",".",".","_",".",".",2,".","_",0,"h",2,2,2,0,"_",".",".",".",".",0,".",".",".",0,".","_",".",2,".",".",".",".","_",".",".",2,".","_",2,".",".",".",0],[0,".",".",0,".",".",".",".",0,"_",".",2,".",2,"_",3,".",".",".",3,".","_",0,"h",2,2,".",".",".",".",".",".","_",0,".",".",".",".",0,"_",".",2,".",2,"_",3,3,".",3,"."],[".",".",".",".",".",".",".",".",".","_",0,".",".",".","_",".",".",".",".",".",".","_",3,".",".",".",".",0,"h",2,".",".","_",".",".",".",".",".",".","_",0,".",".",".","_",".",".",".",".","."],[".",".",".",".",".",".",".",".",".","_",".",".",".",".","_",".",".",".",".",".",".","_",".",".",".",".",".",".",".",".",".",".","_",".",".",".",".",".",".","_",".",".",".",".","_",".",".",".",".","."]],[[".",".",0,".","_",".",".",1,"p",0,".","_",".",".",".",".","_",".",".",".",".",".","_",".",".",0,".","_",0,"h",1,".",".",1,"p",0,".","_",".",".",".",".","_",".",".",".",".",".","."],[1,".",1,".","_",".",".",3,".",".",".","_",".",".",1,".","_",".",".",1,".",".","_",1,".",1,".","_",".",".",".",".",".",3,".",".",".","_",".",".",1,".","_",".",".",".",".",".","."],[0,".",".",".","_",".",2,".",".",".",".","_",".",".",2,".","_",2,".",".",".",0,"_",0,".",".",".","_",".",".",".",".",2,".",".",".",".","_",".",".",2,".","_",0,"h",2,2,2,0],[".",2,".",2,"_",0,".",".",".",".",0,"_",".",2,".",2,"_",3,3,".",3,".","_",".",2,".",2,"_",0,".",".",0,".",".",".",".",0,"_",".",2,".",2,"_",3,".",".",".",3,"."],[3,".",".",".","_",".",".",".",".",".",".","_",0,".",".",".","_",".",".",".",".",".","_",3,".",".",".","_",".",".",".",".",".",".",".",".",".","_",0,".",".",".","_",".",".",".",".",".","."],[".",".",".",".","_",".",".",".",".",".",".","_",".",".",".",".","_",".",".",".",".",".","_",".",".",".",".","_",".",".",".",".",".",".",".",".",".","_",".",".",".",".","_",".",".",".",".",".","."]],[[".",".",".",".",".",".",".",".",".",".","_",0,"h",1,".",".",1,"p",0,".","_",".",".",".",".","_",".",".",".",".",".",".","_",".",".",".",".",".",".",".",".",".",".","_",".",".",".",".",".","_"],[".",".",".",".",".",".",".",".",".",1,"_",".",".",".",".",".",3,".",".",".","_",".",".",1,".","_",".",".",".",".",".",".","_",".",".",".",".",".",".",".",".",".",1,"_",".",".",0,".",".","_"],[".",".",".",".",0,".",".",".",0,".","_",".",".",".",".",2,".",".",".",".","_",".",".",2,".","_",0,"h",2,2,2,0,"_",".",".",".",".",0,".",".",".",0,".","_",".",".",0,".",0,"_"],[0,"h",2,2,".",".",".",".",".",".","_",0,".",".",0,".",".",".",".",0,"_",".",2,".",2,"_",3,".",".",".",3,".","_",0,"h",2,2,".",".",".",".",".",".","_",".",0,".",0,".","_"],[3,".",".",".",".",0,"h",2,".",".","_",".",".",".",".",".",".",".",".",".","_",0,".",".",".","_",".",".",".",".",".",".","_",3,".",".",".",".",0,"h",2,".",".","_",3,".",".",".",".","_"],[".",".",".",".",".",".",".",".",".",".","_",".",".",".",".",".",".",".",".",".","_",".",".",".",".","_",".",".",".",".",".",".","_",".",".",".",".",".",".",".",".",".",".","_",".",".",".",".",".","_"]],[[".",".",".",".","_",".",".",".",0,".","_","_","_"],[1,".",3,".","_",".",1,3,".",".","_","_","_"],[".",".",".",".","_",2,".",".",".",".","_","_","_"],[2,2,".",2,"_",3,".",".",".",2,"_","_","_"],[".",".",".",".","_",".",".",".",".",".","_","_","_"],[".",".",".",".","_",".",".",".",".",".","_","_","_"]]],"numberofstrings":6,"notes":["E","B","G","D","A","E","B"],"capo":"7","stringnotes":["E4","B3","G3","D3","A2","E2"],"comments":["Stave 1:","Stave 2:","Stave 3:","Stave 4:","Stave 5:"],"timing":[[null,null,null,null,null,null,null,null,null,null,null,null,null,null,null,null,null,null,null,null,null,null,null,null,null,null,null,null,null,null,null,null,null,null,null,null,null,null,null,null,null,null,null,null,null,null,null],[null,null,null,null,null,null,null,null,null,null,null,null,null,null,null,null,null,null,null,null,null,null,null,null,null,null,null,null,null,null,null,null,null,null,null,null,null,null,null,null,null,null,null,null,null,null,null,null,null,null],[null,null,null,null,null,null,null,null,null,null,null,null,null,null,null,null,null,null,null,null,null,null,null,null,null,null,null,null,null,null,null,null,null,null,null,null,null,null,null,null,null,null,null,null,null,null,null,null,null,null,null],[null,null,null,null,null,null,null,null,null,null,null,null,null,null,null,null,null,null,null,null,null,null,null,null,null,null,null,null,null,null,null,null,null,null,null,null,null,null,null,null,null,null,null,null,null,null,null,null,null,null,null],[null,null,null,null,null,null,null,null,null,null]],"timingvisible":false,"tabcounter":13,"stave":4,"totalstaves":5,"instrument":"6guitar","selectedtuning":"6_standard","version":"13"}

Member for

6 days 19 hours
Submitted by Melroze on Tue, 2020-09-15 15:37