Ghost - Justin Beiber - Lead Vocals

01234567891011121314151617181920212223
E
B
G
D
A
E
B
0 1 2 3 4 5 6 7 8 9 10 11 12 13 14 15 16 17 18 19 20 21 22 23
(/) Slide Up  (\) Slide Down  (h) Hammer On  (p) Pull Off  (b) Bend (r) Release (v) Vibrato

Stave 1:

E|---------------------------------------------------------------------------
B|-----0--3--3h5--0--3--------3--3p1--1p0------------------------------------
G|--0-------------------0------------------0h2--0--0-----4--4--0--4h5--4--0--
D|---------------------------------------------------------------------------
A|---------------------------------------------------------------------------
E|---------------------------------------------------------------------------

Stave 2:

E|--------------------------------------------------------------------------------
B|-----0--3--3h5--0--3-----------3--3p1--1p0--------------------------------------
G|--0-------------------0--0------------------0h2--0--0-----0h4--4--0--4h5--4--0--
D|--------------------------------------------------------------------------------
A|--------------------------------------------------------------------------------
E|--------------------------------------------------------------------------------

Stave 3:

E|--
B|--
G|--
D|--
A|--
E|--

							http://www.guitartabcreator.com
Chords

Tab Notes
Capo on 2 Chorus only
Instruments
{"strings":[[[".",".",".",".",".",".",".",".",".","_",".",".",".",".",".",".",".",".",".",".",".",".","_",".",".",".",".",".",".",".","."],[".",0,3,3,"h",5,0,3,".","_",3,3,"p",1,1,"p",0,".",".",".",".",".","_",".",".",".",".",".",".",".","."],[0,".",".",".",".",".",".",".",0,"_",".",".",".",".",".",".",".",0,"h",2,0,0,"_",4,4,0,4,"h",5,4,0],[".",".",".",".",".",".",".",".",".","_",".",".",".",".",".",".",".",".",".",".",".",".","_",".",".",".",".",".",".",".","."],[".",".",".",".",".",".",".",".",".","_",".",".",".",".",".",".",".",".",".",".",".",".","_",".",".",".",".",".",".",".","."],[".",".",".",".",".",".",".",".",".","_",".",".",".",".",".",".",".",".",".",".",".",".","_",".",".",".",".",".",".",".","."]],[[".",".",".",".",".",".",".",".",".",".","_",".",".",".",".",".",".",".",".",".",".",".",".","_",".",".",".",".",".",".",".",".",".","."],[".",0,3,3,"h",5,0,3,".",".","_",3,3,"p",1,1,"p",0,".",".",".",".",".","_",".",".",".",".",".",".",".",".",".","."],[0,".",".",".",".",".",".",".",0,0,"_",".",".",".",".",".",".",".",0,"h",2,0,0,"_",0,"h",4,4,0,4,"h",5,4,0],[".",".",".",".",".",".",".",".",".",".","_",".",".",".",".",".",".",".",".",".",".",".",".","_",".",".",".",".",".",".",".",".",".","."],[".",".",".",".",".",".",".",".",".",".","_",".",".",".",".",".",".",".",".",".",".",".",".","_",".",".",".",".",".",".",".",".",".","."],[".",".",".",".",".",".",".",".",".",".","_",".",".",".",".",".",".",".",".",".",".",".",".","_",".",".",".",".",".",".",".",".",".","."]],[[],[],[],[],[],[]]],"numberofstrings":6,"notes":["E","B","G","D","A","E","B"],"capo":0,"stringnotes":["E4","B3","G3","D3","A2","E2"],"comments":["Stave 1:","Stave 2:","Stave 3:"],"timing":[["W","W","W","W",null,"W","W","W","W","W","W","W",null,"W","W",null,"W","W",null,"W","W","W","W","W","W","W","W",null,"W","W","W"],["W","W","W","W",null,"W","W","W","W","W","W","W","W",null,"W","W",null,"W","W",null,"W","W","W","W","W",null,"W","W","W","W",null,"W","W","W"],[]],"timingvisible":false,"tabcounter":0,"stave":2,"totalstaves":3,"instrument":"6guitar","selectedtuning":"6_standard","version":"13"}

Member for

3 years 6 months
Submitted by melmazzo on Sat, 2021-12-04 13:53