arcade -Duncan Laurence-

01234567891011121314151617181920212223
E
B
G
D
A
E
B
0 1 2 3 4 5 6 7 8 9 10 11 12 13 14 15 16 17 18 19 20 21 22 23
(/) Slide Up  (\) Slide Down  (h) Hammer On  (p) Pull Off  (b) Bend (r) Release (v) Vibrato

Stave 1:

E|--------------------------------------------------------------
B|--------1--0--3--------------------------1--0--3--------------
G|--2--------------0-----0--2--------2--------------0-----0--2--
D|--------------------------------------------------------------
A|--------------------------------------------------------------
E|--------------------------------------------------------------

Stave 2:

E|-----------------------------------------------------------
B|-----------------------------------------------------------
G|-----------------------------------------------------------
D|--------0--2--------0--------------0--2--------------------
A|--0--3--------3--2-----3--------3--------3-----2-----3--3--
E|-----------------------------------------------------------

Stave 3:

E|-----------------------------------------------------------------
B|-----------------------------------------------------------------
G|--0--0--------------0-----------0--0--0--------------------------
D|--------3--3--3--0-----2-----------------0--0--0-----0--0--0-----
A|-----------------------------3--------------------------------0--
E|-----------------------------------------------------------------

Stave 4:

E|--------0--------------------------0--------------3--3--1--1--1-----0--3--0--
B|--1--3-----1--0--3--1--------1--3-----1--0--3--------------------------------
G|--------------------------2--------------------------------------------------
D|-----------------------------------------------------------------------------
A|-----------------------------------------------------------------------------
E|-----------------------------------------------------------------------------

Stave 5:

E|-----3--3--3-----------------------------------0--0-----------0--0--0--1--0-----------0--0--
B|--1-----------3--3--3-----3--3--3--------------------3--1--------------------3--1-----------
G|-----------------------------------2--------2--------------2-----------------------2--------
D|--------------------------------------------------------------------------------------------
A|--------------------------------------------------------------------------------------------
E|--------------------------------------------------------------------------------------------

Stave 6:

E|-----0--0-----------0--0--------------1--0--------------0--0--
B|-----------3--1--------------3--3--3--------3--1--0-----------
G|--2--------------2-----------------------------------2--------
D|--------------------------------------------------------------
A|--------------------------------------------------------------
E|--------------------------------------------------------------

Stave 7:

E|--8-----7--8--7-----0--3--0-----1--1--0-----0--0--------------0--0-----------0--0--
B|--------------------------------------------------3--1--0-----------3--1-----------
G|-----------------------------2-----------------------------2--------------2--------
D|-----------------------------------------------------------------------------------
A|-----------------------------------------------------------------------------------
E|-----------------------------------------------------------------------------------

Stave 8:

E|--------------------------------------------------------------------------------------------
B|--------------------------------------------------------------------------------------------
G|-----------------------------------------------------------------0--0--0--------------0-----
D|--------0--2--------0--------------0--2-----------------------------------3--2-----0-----2--
A|--3--3--------3--2-----3-----3--3--------3--2-----2-----2--3--------------------------------
E|--------------------------------------------------------------------------------------------

Stave 9:

E|-----------------------------------------8-----7--8--7-----0--3--0-----1--1--0--0--0--------------0--0-----------------------------
B|--------------------------------------------------------------------------------------3--1--0--------------------------------------
G|--------0--0--0-----------------------------------------------------2--------------------------2-----------------------------------
D|-----------------0--0--0-----0--2--------------------------------------------------------------------------------------------------
A|--3--3-----------------------------0-----------------------------------------------------------------------------------------------
E|-----------------------------------------------------------------------------------------------------------------------------------

Stave 10:

E|--8-----7--8--7-----0--3--0-----1--1--0--0--0--------------0--0-----------0--0--
B|-----------------------------------------------3--1--0-----------3--1-----------
G|-----------------------------2--------------------------2--------------2--------
D|--------------------------------------------------------------------------------
A|--------------------------------------------------------------------------------
E|--------------------------------------------------------------------------------

Stave 11:

E|--1--1--1--1-----0--0--0-----------0--0--0--0-----------------0--
B|--------------------------3--------------------3--3--1--3--1-----
G|-----------------------------------------------------------------
D|-----------------------------------------------------------------
A|-----------------------------------------------------------------
E|-----------------------------------------------------------------

Stave 12:

E|--8-----7--8--7-----0--3--0-----1--1--0--0--0--------------0--0--
B|-----------------------------------------------3--1--0-----------
G|-----------------------------2--------------------------2--------
D|-----------------------------------------------------------------
A|-----------------------------------------------------------------
E|-----------------------------------------------------------------

Stave 13:

E|--8-----7--8--7-----0-----3--0--5-----------------------------0--0-----------0--0--
B|-----------------------------------6--6--5--5--5--3-----0-----------3--1-----------
G|-----------------------------------------------------5-----2--------------2--------
D|-----------------------------------------------------------------------------------
A|-----------------------------------------------------------------------------------
E|-----------------------------------------------------------------------------------

Stave 14:

E|--------------------------------------------------
B|-----1--0--3--------------------1--0--3-----------
G|--2-----------0--0--2--------2-----------0--0--2--
D|--------------------------------------------------
A|--------------------------------------------------
E|--------------------------------------------------

							http://www.guitartabcreator.com
Chords

Instruments
{"strings":[[[".","_",".",".",".",".","_",".",".","_","_",".","_",".",".",".",".","_",".","."],[".","_",1,0,3,".","_",".",".","_","_",".","_",1,0,3,".","_",".","."],[2,"_",".",".",".",0,"_",0,2,"_","_",2,"_",".",".",".",0,"_",0,2],[".","_",".",".",".",".","_",".",".","_","_",".","_",".",".",".",".","_",".","."],[".","_",".",".",".",".","_",".",".","_","_",".","_",".",".",".",".","_",".","."],[".","_",".",".",".",".","_",".",".","_","_",".","_",".",".",".",".","_",".","."]],[[".",".",".",".",".",".",".",".","_","_",".",".",".",".","_",".","_",".","."],[".",".",".",".",".",".",".",".","_","_",".",".",".",".","_",".","_",".","."],[".",".",".",".",".",".",".",".","_","_",".",".",".",".","_",".","_",".","."],[".",".",0,2,".",".",0,".","_","_",".",0,2,".","_",".","_",".","."],[0,3,".",".",3,2,".",3,"_","_",3,".",".",3,"_",2,"_",3,3],[".",".",".",".",".",".",".",".","_","_",".",".",".",".","_",".","_",".","."]],[[".",".",".",".",".",".",".",".","_",".",".",".",".",".",".",".","_",".",".",".","."],[".",".",".",".",".",".",".",".","_",".",".",".",".",".",".",".","_",".",".",".","."],[0,0,".",".",".",".",0,".","_",".",0,0,0,".",".",".","_",".",".",".","."],[".",".",3,3,3,0,".",2,"_",".",".",".",".",0,0,0,"_",0,0,0,"."],[".",".",".",".",".",".",".",".","_",3,".",".",".",".",".",".","_",".",".",".",0],[".",".",".",".",".",".",".",".","_",".",".",".",".",".",".",".","_",".",".",".","."]],[[".",".",0,".",".",".",".","_",".",".",".",0,".",".",".","_",3,3,1,1,1,"_",0,3,0],[1,3,".",1,0,3,1,"_",".",1,3,".",1,0,3,"_",".",".",".",".",".","_",".",".","."],[".",".",".",".",".",".",".","_",2,".",".",".",".",".",".","_",".",".",".",".",".","_",".",".","."],[".",".",".",".",".",".",".","_",".",".",".",".",".",".",".","_",".",".",".",".",".","_",".",".","."],[".",".",".",".",".",".",".","_",".",".",".",".",".",".",".","_",".",".",".",".",".","_",".",".","."],[".",".",".",".",".",".",".","_",".",".",".",".",".",".",".","_",".",".",".",".",".","_",".",".","."]],[[".",3,3,3,".",".",".","_",".",".",".",".","_","_",".",0,0,".",".",".",0,0,0,1,0,".",".",".",0,0],[1,".",".",".",3,3,3,"_",3,3,3,".","_","_",".",".",".",3,1,".",".",".",".",".",".",3,1,".",".","."],[".",".",".",".",".",".",".","_",".",".",".",2,"_","_",2,".",".",".",".",2,".",".",".",".",".",".",".",2,".","."],[".",".",".",".",".",".",".","_",".",".",".",".","_","_",".",".",".",".",".",".",".",".",".",".",".",".",".",".",".","."],[".",".",".",".",".",".",".","_",".",".",".",".","_","_",".",".",".",".",".",".",".",".",".",".",".",".",".",".",".","."],[".",".",".",".",".",".",".","_",".",".",".",".","_","_",".",".",".",".",".",".",".",".",".",".",".",".",".",".",".","."]],[[".",0,0,".",".",".",0,0,"_",".",".",".",1,0,".",".",".",".",0,0],[".",".",".",3,1,".",".",".","_",3,3,3,".",".",3,1,0,".",".","."],[2,".",".",".",".",2,".",".","_",".",".",".",".",".",".",".",".",2,".","."],[".",".",".",".",".",".",".",".","_",".",".",".",".",".",".",".",".",".",".","."],[".",".",".",".",".",".",".",".","_",".",".",".",".",".",".",".",".",".",".","."],[".",".",".",".",".",".",".",".","_",".",".",".",".",".",".",".",".",".",".","."]],[[8,"_",7,8,7,"_",0,3,0,".",1,1,0,"_",0,0,".",".",".",".",0,0,".",".",".",0,0],[".","_",".",".",".","_",".",".",".",".",".",".",".","_",".",".",3,1,0,".",".",".",3,1,".",".","."],[".","_",".",".",".","_",".",".",".",2,".",".",".","_",".",".",".",".",".",2,".",".",".",".",2,".","."],[".","_",".",".",".","_",".",".",".",".",".",".",".","_",".",".",".",".",".",".",".",".",".",".",".",".","."],[".","_",".",".",".","_",".",".",".",".",".",".",".","_",".",".",".",".",".",".",".",".",".",".",".",".","."],[".","_",".",".",".","_",".",".",".",".",".",".",".","_",".",".",".",".",".",".",".",".",".",".",".",".","."]],[[".",".",".",".",".",".",".",".","_",".",".",".",".",".",".","_",".","_",".",".","_",".",".",".",".",".","_",".",".","."],[".",".",".",".",".",".",".",".","_",".",".",".",".",".",".","_",".","_",".",".","_",".",".",".",".",".","_",".",".","."],[".",".",".",".",".",".",".",".","_",".",".",".",".",".",".","_",".","_",".",".","_",0,0,0,".",".","_",".",0,"."],[".",".",0,2,".",".",0,".","_",".",".",0,2,".",".","_",".","_",".",".","_",".",".",".",3,2,"_",0,".",2],[3,3,".",".",3,2,".",3,"_",3,3,".",".",3,2,"_",2,"_",2,3,"_",".",".",".",".",".","_",".",".","."],[".",".",".",".",".",".",".",".","_",".",".",".",".",".",".","_",".","_",".",".","_",".",".",".",".",".","_",".",".","."]],[[".",".",".",".",".",".",".",".","_",".",".",".","_",8,"_",7,8,7,"_",0,3,0,".",1,1,0,0,0,".",".",".",".",0,0,"_","_","_","_","_","_","_","_","_"],[".",".",".",".",".",".",".",".","_",".",".",".","_",".","_",".",".",".","_",".",".",".",".",".",".",".",".",".",3,1,0,".",".",".","_","_","_","_","_","_","_","_","_"],[".",".",0,0,0,".",".",".","_",".",".",".","_",".","_",".",".",".","_",".",".",".",2,".",".",".",".",".",".",".",".",2,".",".","_","_","_","_","_","_","_","_","_"],[".",".",".",".",".",0,0,0,"_",0,2,".","_",".","_",".",".",".","_",".",".",".",".",".",".",".",".",".",".",".",".",".",".",".","_","_","_","_","_","_","_","_","_"],[3,3,".",".",".",".",".",".","_",".",".",0,"_",".","_",".",".",".","_",".",".",".",".",".",".",".",".",".",".",".",".",".",".",".","_","_","_","_","_","_","_","_","_"],[".",".",".",".",".",".",".",".","_",".",".",".","_",".","_",".",".",".","_",".",".",".",".",".",".",".",".",".",".",".",".",".",".",".","_","_","_","_","_","_","_","_","_"]],[[8,"_",7,8,7,"_",0,3,0,".",1,1,0,0,0,".",".",".",".",0,0,".",".",".",0,0],[".","_",".",".",".","_",".",".",".",".",".",".",".",".",".",3,1,0,".",".",".",3,1,".",".","."],[".","_",".",".",".","_",".",".",".",2,".",".",".",".",".",".",".",".",2,".",".",".",".",2,".","."],[".","_",".",".",".","_",".",".",".",".",".",".",".",".",".",".",".",".",".",".",".",".",".",".",".","."],[".","_",".",".",".","_",".",".",".",".",".",".",".",".",".",".",".",".",".",".",".",".",".",".",".","."],[".","_",".",".",".","_",".",".",".",".",".",".",".",".",".",".",".",".",".",".",".",".",".",".",".","."]],[[1,1,1,1,"_",0,0,0,".","_","_",0,0,0,0,".",".",".",".",".",0],[".",".",".",".","_",".",".",".",3,"_","_",".",".",".",".",3,3,1,3,1,"."],[".",".",".",".","_",".",".",".",".","_","_",".",".",".",".",".",".",".",".",".","."],[".",".",".",".","_",".",".",".",".","_","_",".",".",".",".",".",".",".",".",".","."],[".",".",".",".","_",".",".",".",".","_","_",".",".",".",".",".",".",".",".",".","."],[".",".",".",".","_",".",".",".",".","_","_",".",".",".",".",".",".",".",".",".","."]],[[8,"_",7,8,7,"_",0,3,0,".",1,1,0,0,0,".",".",".",".",0,0],[".","_",".",".",".","_",".",".",".",".",".",".",".",".",".",3,1,0,".",".","."],[".","_",".",".",".","_",".",".",".",2,".",".",".",".",".",".",".",".",2,".","."],[".","_",".",".",".","_",".",".",".",".",".",".",".",".",".",".",".",".",".",".","."],[".","_",".",".",".","_",".",".",".",".",".",".",".",".",".",".",".",".",".",".","."],[".","_",".",".",".","_",".",".",".",".",".",".",".",".",".",".",".",".",".",".","."]],[[8,"_",7,8,7,"_",0,"_",3,0,5,".",".",".",".",".",".",".",".",".",0,0,".",".",".",0,0],[".","_",".",".",".","_",".","_",".",".",".",6,6,5,5,5,3,".",0,".",".",".",3,1,".",".","."],[".","_",".",".",".","_",".","_",".",".",".",".",".",".",".",".",".",5,".",2,".",".",".",".",2,".","."],[".","_",".",".",".","_",".","_",".",".",".",".",".",".",".",".",".",".",".",".",".",".",".",".",".",".","."],[".","_",".",".",".","_",".","_",".",".",".",".",".",".",".",".",".",".",".",".",".",".",".",".",".",".","."],[".","_",".",".",".","_",".","_",".",".",".",".",".",".",".",".",".",".",".",".",".",".",".",".",".",".","."]],[[".",".",".",".",".",".",".","_","_",".",".",".",".",".",".","."],[".",1,0,3,".",".",".","_","_",".",1,0,3,".",".","."],[2,".",".",".",0,0,2,"_","_",2,".",".",".",0,0,2],[".",".",".",".",".",".",".","_","_",".",".",".",".",".",".","."],[".",".",".",".",".",".",".","_","_",".",".",".",".",".",".","."],[".",".",".",".",".",".",".","_","_",".",".",".",".",".",".","."]]],"numberofstrings":6,"notes":["E","B","G","D","A","E","B"],"capo":0,"stringnotes":["E4","B3","G3","D3","A2","E2"],"comments":["Stave 1:","Stave 2:","Stave 3:","Stave 4:","Stave 5:","Stave 6:","Stave 7:","Stave 8:","Stave 9:","Stave 10:","Stave 11:","Stave 12:","Stave 13:","Stave 14:"],"timing":[["W","W","W","W","W","W","W","W","W","W","W","W","W","W","W","W","W",null,"W","W"],["W","W","W","W","W","W","W","W",null,null,"W","W","W","W","W","W",null,"W","W"],["W","W","W","W","W","W","W","W",null,"W","W","W","W","W","W","W",null,"W","W","W","W"],["W","W","W","W","W","W","W",null,"W","W","W","W","W","W","W",null,"W","W","W","W","W",null,"W","W","W"],["W","W","W","W","W","W","W",null,"W","W","W","W",null,null,"W","W","W","W","W","W","W","W","W","W","W","W","W","W","W","W"],["W","W","W","W","W","W","W","W",null,"W","W","W","W","W","W","W","W","W","W","W"],["W",null,"W","W","W",null,"W","W","W","W","W","W","W",null,"W","W","W","W","W","W","W","W","W","W","W","W","W"],["W","W","W","W","W","W","W","W",null,"W","W","W","W","W","W",null,"W",null,"W","W",null,"W","W","W","W","W",null,"W","W","W"],["W","W","W","W","W","W","W","W",null,"W","W","W",null,"W","W","W","W","W",null,"W","W","W","W","W","W","W","W","W","W","W","W","W","W","W"],["W",null,"W","W","W",null,"W","W","W","W","W","W","W","W","W","W","W","W","W","W","W","W","W","W","W","W"],["W","W","W","W",null,"W","W","W","W",null,null,"W","W","W","W","W","W","W","W","W","W"],["W",null,"W","W","W",null,"W","W","W","W","W","W","W","W","W","W","W","W","W","W","W"],["W",null,"W","W","W",null,"W",null,"W","W","W","W","W","W","W","W","W","W","W","W","W","W","W","W","W","W","W"],["W","W","W","W","W","W","W",null,null,"W","W","W","W","W","W","W"]],"timingvisible":false,"tabcounter":20,"stave":5,"totalstaves":14,"instrument":"6guitar","selectedtuning":"6_standard","version":"13"}

Member for

2 months
Submitted by Melissa3304 on Sun, 2021-02-21 03:32