Sound will begin in 5 seconds

Your Mama Don't Dance- Kenny Loggins/ J Messina Key-G

01234567891011121314151617181920212223
E
B
G
D
A
E
B
0 1 2 3 4 5 6 7 8 9 10 11 12 13 14 15 16 17 18 19 20 21 22 23
Song Science #1: How Pros Use 6 Chords to Write Hit Songs
(/) Slide Up  (\) Slide Down  (h) Hammer On  (p) Pull Off  (b) Bend (r) Release (v) Vibrato

Stave 1:

E|-----------------------------------------------------
B|-----------------------------------------------------
G|-----------------------------------------------------
D|-----------0--2--0-----------0--2-----------0--2-----
A|-----1--2--------------1--2-----------1--2-----------
E|--3-----------------3--------------3--------------3--

Stave 2:

E|--------------------------------------------------------------------------------------------------------
B|--------------------------------------------------------------------------------------------------------
G|-----------0--2--0-----------0--2-----------------------------------------------------2--4--2-----------
D|-----1--2--------------1--2--------------------0--2--0-----------0--2--0-----0--3--4--------------1--2--
A|--3-----------------3--------------3-----1--2--------------1--2--------------------------------3--------
E|--------------------------------------3-----------------3-----------------3-----------------------------

Stave 3:

E|-----------------------------
B|-----------------------------
G|--0--2--0--------------------
D|--------------------0--2--0--
A|--------------1--2-----------
E|-----------3-----------------

Stave 4:

E|-----------------------------------------------------------------------------------------------
B|--8-----6-----5--------5-----8-----6-----5-----8-----6-----4-----5-----5-----6-----4-----5-----
G|-----8-----7-----5--------5-----8-----7-----5-----9-----7-----5-----5-----5-----7-----5-----5--
D|--------------------7--------------------------------------------------------------------------
A|-----------------------------------------------------------------------------------------------
E|-----------------------------------------------------------------------------------------------

http://www.guitartabcreator.com
Guitar Tab Creator is intended to store guitar tab created through the tool. It currently does not support in-line text editing. Any text you place in here will be lost. If you need to comment on your tab, please use the "Tab Notes" section located below.