Sound will begin in 5 seconds

Pity Party

Chords
01234567891011121314151617181920212223
E
B
G
D
A
E
B
0 1 2 3 4 5 6 7 8 9 10 11 12 13 14 15 16 17 18 19 20 21 22 23
Song Science #1: How Pros Use 6 Chords to Write Hit Songs
(/) Slide Up  (\) Slide Down  (h) Hammer On  (p) Pull Off  (b) Bend (r) Release (v) Vibrato

Stave 1:

E|------------------------------------------------------------
B|----------------------8--6----------------------------8--6--
G|---------8---------8---------------------8---------8--------
D|--8--10-----8--10-----------------8--10-----8--10-----------
A|------------------------------------------------------------
E|------------------------------------------------------------

Stave 2:

E|------------------------------------------------------------------------------------------
B|--14--14--14--14--14--14--14--14--11--11--11--11--11--11--11--11--9--9--9--9--9--9--9--9--
G|--13--13--13--13--13--13--13--13--10--10--10--10--10--10--10--10--8--8--8--8--8--8--8--8--
D|------------------------------------------------------------------------------------------
A|------------------------------------------------------------------------------------------
E|------------------------------------------------------------------------------------------

Stave 3:

E|------------------------------------------------------------------------------------------
B|--6--6--6--6--6--6--6--6--14--14--14--14--14--14--14--14--14--14--14--14--14--14--14--14--
G|--5--5--5--5--5--5--5--5--13--13--13--13--13--13--13--13--13--13--13--13--13--13--13--13--
D|------------------------------------------------------------------------------------------
A|------------------------------------------------------------------------------------------
E|------------------------------------------------------------------------------------------

Stave 4:

E|------------------------------------------------------------------
B|--16--16--16--16--16--16--16--16--16--16--16--16--16--16--16--16--
G|--15--15--15--15--15--15--15--15--15--15--15--15--15--15--15--15--
D|------------------------------------------------------------------
A|------------------------------------------------------------------
E|------------------------------------------------------------------

Stave 5:

E|------------------------------------------------------------------
B|------------------------------------------------------------------
G|------------------------------------------------------------------
D|--13--13--13--13--13--15--13--13--13--13--13--13--13--15--13--13--
A|--11--11--11--11--11--11--11--11--11--11--11--11--11--11--11--11--
E|------------------------------------------------------------------

Stave 6:

E|------------------------------------------------------------------
B|------------------------------------------------------------------
G|------------------------------------------------------------------
D|--10--10--10--10--10--10--10--10--10--10--10--10--10--10--10--10--
A|--8---8---8---8---8---8---8---8---8---8---8---8---8---8---8---8---
E|------------------------------------------------------------------

Stave 7:

E|--------------------------------------------------------
B|--------------------------------------------------------
G|--------------------------------------------------------
D|--1--6--------------6--5--6--5--6--5--3-----------------
A|--------------------------------------------------1--3--
E|--------------------------------------------------------

Stave 8:

E|----------------------------------------------
B|----------------------------------------------
G|--------------------------------8-------------
D|--1--10--------------10--8--10-----10--8--10--
A|----------------------------------------------
E|----------------------------------------------

http://www.guitartabcreator.com
Guitar Tab Creator is intended to store guitar tab created through the tool. It currently does not support in-line text editing. Any text you place in here will be lost. If you need to comment on your tab, please use the "Tab Notes" section located below.