Sound will begin in 5 seconds

Touch and Go by Ed Sheeran

Chords
01234567891011121314151617181920212223
E
B
G
D
A
E
B
0 1 2 3 4 5 6 7 8 9 10 11 12 13 14 15 16 17 18 19 20 21 22 23
Song Science #1: How Pros Use 6 Chords to Write Hit Songs
(/) Slide Up  (\) Slide Down  (h) Hammer On  (p) Pull Off  (b) Bend (r) Release (v) Vibrato

Stave 1:

E|-----x----------x-----x--2--x--
B|--0--x--0h1--1--x--0--x--3--x--
G|--0--x-------0--x--0--x--2--x--
D|--2--x--2-------x--0--x--0--x--
A|-----x--3-------x-----x-----x--
E|--0--x----------x--3--x-----x--

Stave 2:

E|-----------------------
B|-----------------------
G|--2h4p2p0-------0h2p0--
D|-----------2p0---------
A|-----------------------
E|-----------------------

Stave 3:

E|-----x-----x-----x-----x--2--x-----x-----x-----x--
B|--0--x--3--x--1--x--1--x--3--x--0--x--1--x--1--x--
G|--0--x--4--x--0--x--0--x--2--x--0--x--0--x--0--x--
D|--0--x--4--x--2--x--2--x--0--x--2--x--2--x--2--x--
A|-----x--2--x--3--x--3--x-----x-----x--3--x--3--x--
E|--3--x-----x-----x-----x-----x--0--x-----x-----x--

Stave 4:

E|----------x-----x--
B|--1----1--x--1--x--
G|--0----0--x--0--x--
D|--0h2--2--x--2--x--
A|--3-------x--3--x--
E|----------x-----x--

Stave 5:

E|-----x-----x-------------x--2--0--2--3--x--------------
B|--3--x--0--x--1----1--1--x--3--2--3--3--x--3--5--3--0--
G|--4--x--0--x--0----0--0--x--2--3--2--2--x--4--5--4--0--
D|--4--x--2--x--0h2--0--2--x--0--0--0--0--x--4--5--4--2--
A|--2--x-----x--3----3--3--x--------------x--2--3--2-----
E|-----x--0--x-------------x--------------x-----------0--

Stave 6:

E|----------------2--2--2--2--
B|--1-1--1--0--0--3--3--3--3--
G|--0-0--0--0--0--2--2--2--2--
D|--3p2--0--0--0--0--0--0--0--
A|--3-3--3--------------------
E|----------3-----------------

Stave 7:

E|-----x-----------x--------x--2--2--x--
B|--0--x--1--1--1--x--0--0--x--3--3--x--
G|--0--x--0--0--0--x--0--0--x--2--2--x--
D|--2--x--0--2--0--x--0--0--x--0-----x--
A|-----x--3--3--3--x--------x--------x--
E|--0--x-----------x--3-----x--------x--

Stave 8:

E|--------------------------
B|--3--3--3--3--3--3--3--3--
G|--2--0--2--0--0--0--0--0--
D|--0--0--0--0--0--2--2--0--
A|-----------------3--------
E|--2--2--2--3-----------3--

http://www.guitartabcreator.com
Guitar Tab Creator is intended to store guitar tab created through the tool. It currently does not support in-line text editing. Any text you place in here will be lost. If you need to comment on your tab, please use the "Tab Notes" section located below.