Sound will begin in 5 seconds

Faded - Alan Walker

01234567891011121314151617181920212223
E
B
G
D
A
E
B
0 1 2 3 4 5 6 7 8 9 10 11 12 13 14 15 16 17 18 19 20 21 22 23
Song Science #1: How Pros Use 6 Chords to Write Hit Songs
(/) Slide Up  (\) Slide Down  (h) Hammer On  (p) Pull Off  (b) Bend (r) Release (v) Vibrato

Capo Fret 6

(W|WW) Whole (H|HH) Half (Q|QQ) Quarter (E|EE) 8th (S|SS) 16th (T|TT) 32nd (X|XX) 64th

Stave 1:
t: W W W W W W W W Q W W W W W W W W W W W W
E|-------------------------------------------0--|--------------------------------|--
B|-----1--1-----1-----1--3--3/5-----1--1--------|--1--1--1--0--------1--1-----1--|--
G|-----------2-----2----------------------0-----|--------------------------2-----|--
D|----------------------------------------------|--------------------------------|--
A|----------------------------------------------|--------------------------------|--
E|----------------------------------------------|--------------------------------|--

Stave 2:
t: W W W W W W W W W W W W W W W W
E|-------------------------------------3--0--|----------------------------------|--
B|--1--1-----1-----1--3--3/5-----1--1--------|--1--1/3--------------------------|--
G|--------2-----2----------------------------|----------------------------------|--
D|-------------------------------------------|----------------------------------|--
A|-------------------------------------------|----------------------------------|--
E|-------------------------------------------|----------------------------------|--

Stave 3:
t: W W W W W
E|----------------------
B|--------3/5--5--5--5--
G|----------------------
D|----------------------
A|----------------------
E|----------------------

Stave 4:
t: W W W W W W W W W W W W W W W W W W W W
E|--------------------------------|----------------|-----------------------|--
B|--1--3--3-----3--3--3-----1--1--|--3/5--5--5--5--|--1--1--3--0--0--0--0--|--
G|--------------------------------|----------------|-----------------------|--
D|--------------------------------|----------------|-----------------------|--
A|--------------------------------|----------------|-----------------------|--
E|--------------------------------|----------------|-----------------------|--

Stave 5:
t: W W W W W W W W W W W W W W W W
E|-------------|--------------------|-----3-----3--0--------|-----3--3--0--------------
B|--3/5--5--5--|--1-----------------|--1--------------------|--1-----------------3-----
G|-------------|-----2--0-----------|-----------------------|--------------------------
D|-------------|--------------------|-----------------------|--------------------------
A|-------------|--------------------|-----------------------|--------------------------
E|-------------|--------------------|-----------------------|--------------------------

Stave 6:
t: W W W W W W W W W W W W W W W W W W W W W W
E|-------------|--------------1--|--3\0--0-----3\0--0--3\0--0--3\0--0-----1--|--
B|--3/5--5--5--|--1--1-----------|-------------------------------------3-----|--
G|-------------|-----------2-----|-------------------------------------------|--
D|-------------|-----------------|-------------------------------------------|--
A|-------------|-----------------|-------------------------------------------|--
E|-------------|-----------------|-------------------------------------------|--

Stave 7:
t: W W W W W W W W W W W W W W W W
E|-----1--------0--|-----1--------0--|----------|-----1--------0--|-----1--------1/3--
B|-----------------|-----------------|--1\0--0--|-----------------|-------------------
G|--2--------------|--2--------------|----------|--2--------------|--2----------------
D|-----------------|-----------------|----------|-----------------|-------------------
A|-----------------|-----------------|----------|-----------------|-------------------
E|-----------------|-----------------|----------|-----------------|-------------------

Stave 8:
t: W W W W W W
E|----------|-----1--------0--
B|--1\0--0--|-----------------
G|----------|--2--------------
D|----------|-----------------
A|----------|-----------------
E|----------|-----------------

Stave 9:
t: W W W W W W W W W W W W W W W W W W W W
E|--------------------------|--------3--0--|----------------|--------------
B|--1--1--1--0-----1--3--5--|--1--1--------|--1--1/3--0-----|--1--0-----1--
G|--------------2-----------|--------------|----------------|--------2-----
D|--------------------------|--------------|----------------|--------------
A|--------------------------|--------------|----------------|--------------
E|--------------------------|--------------|----------------|--------------

Stave 10:
t: W W W W W W W W W W W W W W
E|----------------------0--|-----3p0--|-------------|--
B|--1--1/3--0-----1--3-----|--1-------|--1--1/3-----|--
G|-------------2-----------|----------|-------------|--
D|-------------------------|----------|-------------|--
A|-------------------------|----------|-------------|--
E|-------------------------|----------|-------------|--

Stave 11:
t: W W W W WW
E|----------------
B|--3/5--5--5/13--
G|----------------
D|----------------
A|----------------
E|----------------

Stave 12:
t: W W W W W W W W W W W W W W WW W W W W W W W W W
E|-----3--3--0--------3--3--0--|-----3--3-----------------|-----3--3--0--|-----3--3-------
B|--1--------------1-----------|--1--------3-----1--1/13--|--1-----------|--1--------5\3--
G|-----------------------------|--------------------------|--------------|----------------
D|-----------------------------|--------------------------|--------------|----------------
A|-----------------------------|--------------------------|--------------|----------------
E|-----------------------------|--------------------------|--------------|----------------

Stave 13:
t: W W W W W W W W W W W W W
E|-----------------------3p0--0-----------0--0--0--
B|--1-----1--3--1-----1-------------0--1-----------
G|-------------------------------------------------
D|-------------------------------------------------
A|-------------------------------------------------
E|-------------------------------------------------

Stave 14:
t: W W W W W W W W W W W W W W
E|-----------------------3p0--0--0--0--0--0--0--0--
B|--1-----1--3--1-----1----------------------------
G|-------------------------------------------------
D|-------------------------------------------------
A|-------------------------------------------------
E|-------------------------------------------------

Stave 15:
t:
E|--
B|--
G|--
D|--
A|--
E|--

http://www.guitartabcreator.com
Guitar Tab Creator is intended to store guitar tab created through the tool. It currently does not support in-line text editing. Any text you place in here will be lost. If you need to comment on your tab, please use the "Tab Notes" section located below.