Sound will begin in 5 seconds

First one

Chords
01234567891011121314151617181920212223
E
B
G
D
A
E
B
0 1 2 3 4 5 6 7 8 9 10 11 12 13 14 15 16 17 18 19 20 21 22 23
Song Science #1: How Pros Use 6 Chords to Write Hit Songs
(/) Slide Up  (\) Slide Down  (h) Hammer On  (p) Pull Off  (b) Bend (r) Release (v) Vibrato

Stave 1:

D|--------------------------------------------
A|-----7-----------------7-----------0--------
F|--------7--5--------5-----------7-----7-----
C|-----------------0-----------0-----------0--
G|--------------------------------------------
C|--0-----------0-----------5-----------------

Stave 2:

D|-----------------------------3--5/7--7--------5h7--5--------5--3--3--------------------------------------
A|--------------------------3----------------5-------------3--------------3--3-----3--3-----3--3-----3-----
F|-----4--2--0-----------3----------------5-------------3--------------0--------0--------0--------0-----4--
C|--------------0-----0----------------7-------------5--------------2-----------------------------------5--
G|--3------------------------------------------------------------------------3--------2--------0-----------
C|-----------------5------------------------------------------------------------------------------------5--

Stave 3:

D|-------------------------------------------------
A|----------------------------6--------------------
F|--------4/5--7--------5--7-------------9--11/12--
C|-----5-------------7---------------10------------
G|-------------------------------------------------
C|--5----------5--7-----------7--10------------10--

Stave 4:

D|---------------------
A|---------------------
F|--4--7--2--9---7--4--
C|--5--8--3--10--8--5--
G|---------------------
C|--5--8--3--10--8--5--

http://www.guitartabcreator.com
Guitar Tab Creator is intended to store guitar tab created through the tool. It currently does not support in-line text editing. Any text you place in here will be lost. If you need to comment on your tab, please use the "Tab Notes" section located below.