Scales in Am

Chords

01234567891011121314151617181920212223
E
B
G
D
A
E
B
0 1 2 3 4 5 6 7 8 9 10 11 12 13 14 15 16 17 18 19 20 21 22 23
(/) Slide Up  (\) Slide Down  (h) Hammer On  (p) Pull Off  (b) Bend (r) Release (v) Vibrato

Stave 1:

E|--------------------------------------------5--7--8--|--
B|-----------------------------------5--6--8-----------|--
G|--------------------------4--5--7--------------------|--
D|--------------------5--7-----------------------------|--
A|-----------5--7--8-----------------------------------|--
E|--5--7--8--------------------------------------------|--

Stave 2:

E|--------------------------------------------5--7--8--|--
B|-----------------------------------5--7--8-----------|--
G|--------------------------4--5--7--------------------|--
D|-----------------4--5--7-----------------------------|--
A|-----------5--7--------------------------------------|--
E|--5--7--8--------------------------------------------|--

Stave 3:

E|--------------------------------------------5--6--8--|--
B|-----------------------------------5--6--8-----------|--
G|-----------------------------5--7--------------------|--
D|--------------------5--7--8--------------------------|--
A|-----------5--7--8-----------------------------------|--
E|--5--6--8--------------------------------------------|--

Stave 4:

E|--------------------------------------------5--7--8--|--
B|-----------------------------------5--6--9-----------|--
G|-----------------------------5--7--------------------|--
D|--------------------6--7--9--------------------------|--
A|-----------5--7--8-----------------------------------|--
E|--5--7--8--------------------------------------------|--

Stave 5:

E|--
B|--
G|--
D|--
A|--
E|--

							http://www.guitartabcreator.com
Instruments
{"title":"Scales in Am","strings":[[[".",".",".",".",".",".",".",".",".",".",".",".",".",".",5,7,8,"|"],[".",".",".",".",".",".",".",".",".",".",".",5,6,8,".",".",".","|"],[".",".",".",".",".",".",".",".",4,5,7,".",".",".",".",".",".","|"],[".",".",".",".",".",".",5,7,".",".",".",".",".",".",".",".",".","|"],[".",".",".",5,7,8,".",".",".",".",".",".",".",".",".",".",".","|"],[5,7,8,".",".",".",".",".",".",".",".",".",".",".",".",".",".","|"]],[[".",".",".",".",".",".",".",".",".",".",".",".",".",".",5,7,8,"|"],[".",".",".",".",".",".",".",".",".",".",".",5,7,8,".",".",".","|"],[".",".",".",".",".",".",".",".",4,5,7,".",".",".",".",".",".","|"],[".",".",".",".",".",4,5,7,".",".",".",".",".",".",".",".",".","|"],[".",".",".",5,7,".",".",".",".",".",".",".",".",".",".",".",".","|"],[5,7,8,".",".",".",".",".",".",".",".",".",".",".",".",".",".","|"]],[[".",".",".",".",".",".",".",".",".",".",".",".",".",".",5,6,8,"|"],[".",".",".",".",".",".",".",".",".",".",".",5,6,8,".",".",".","|"],[".",".",".",".",".",".",".",".",".",5,7,".",".",".",".",".",".","|"],[".",".",".",".",".",".",5,7,8,".",".",".",".",".",".",".",".","|"],[".",".",".",5,7,8,".",".",".",".",".",".",".",".",".",".",".","|"],[5,6,8,".",".",".",".",".",".",".",".",".",".",".",".",".",".","|"]],[[".",".",".",".",".",".",".",".",".",".",".",".",".",".",5,7,8,"|"],[".",".",".",".",".",".",".",".",".",".",".",5,6,9,".",".",".","|"],[".",".",".",".",".",".",".",".",".",5,7,".",".",".",".",".",".","|"],[".",".",".",".",".",".",6,7,9,".",".",".",".",".",".",".",".","|"],[".",".",".",5,7,8,".",".",".",".",".",".",".",".",".",".",".","|"],[5,7,8,".",".",".",".",".",".",".",".",".",".",".",".",".",".","|"]],[[],[],[],[],[],[]]],"numberofstrings":6,"notes":["E","B","G","D","A","E","B"],"capo":0,"stringnotes":["E4","B3","G3","D3","A2","E2"],"comments":["Stave 1:","Stave 2:","Stave 3:","Stave 4:","Stave 5:"],"timing":[["W","W","W","W","W","W","W","W","W","W","W","W","W","W","W","W","W"],["W","W","W","W","W","W","W","W","W","W","W","W","W","W","W","W","W"],["W","W","W","W","W","W","W","W","W","W","W","W","W","W","W","W","W","W"],["W","W","W","W","W","W","W","W","W","W","W","W","W","W","W","W","W"],[]],"timingvisible":false,"tabcounter":18,"stave":3,"totalstaves":5,"instrument":"6guitar","selectedtuning":"6_standard","version":"13"}

Member for

6 months
Submitted by mdrothfeld on Sat, 2020-04-04 19:51