A MINOR SCALES

Chords

01234567891011121314151617181920212223
E
B
G
D
A
E
B
0 1 2 3 4 5 6 7 8 9 10 11 12 13 14 15 16 17 18 19 20 21 22 23
(/) Slide Up  (\) Slide Down  (h) Hammer On  (p) Pull Off  (b) Bend (r) Release (v) Vibrato

Stave 1:

E|------------------------------------------------7--8--10--|----------------------------------------------------------12--14--15--|--
B|--------------------------------------7--8--10------------|----------------------------------------------12--13--15--------------|--
G|--------------------------------7--9----------------------|----------------------------------11--12--14--------------------------|--
D|----------------------7--9--10----------------------------|--------------------------12--14--------------------------------------|--
A|------------7--9--10--------------------------------------|--------------12--14--15----------------------------------------------|--
E|--7--8--10------------------------------------------------|--12--14--15----------------------------------------------------------|--

Stave 2:

E|-----------------------------------------------------8--10--|----------------------------------------------------------12--13--15--|--
B|------------------------------------------8--10--11---------|--------------------------------------------------13--15--------------|--
G|--------------------------------7--9--10--------------------|--------------------------------------12--14--15----------------------|--
D|----------------------7--8--10------------------------------|--------------------------12--14--15----------------------------------|--
A|------------7--8--10----------------------------------------|--------------12--13--15----------------------------------------------|--
E|--6--8--10--------------------------------------------------|--12--13--15----------------------------------------------------------|--

Stave 3:

E|-------------------------------------------8--10--11--12--|-------------------------------------------------10--11--12--15--|--
B|------------------------------------8--10-----------------|-----------------------------------------10--13------------------|--
G|---------------------------7--8--9------------------------|----------------------------------9--12--------------------------|--
D|--------------------7--10---------------------------------|----------------------10--12--13---------------------------------|--
A|-------------7--10----------------------------------------|--------------10--12---------------------------------------------|--
E|--8--10--11-----------------------------------------------|--10--11--12-----------------------------------------------------|--

							http://www.guitartabcreator.com
{"strings":[[[".",".",".",".",".",".",".",".",".",".",".",".",".",".",7,8,10,"|",".",".",".",".",".",".",".",".",".",".",".",".",".",".",12,14,15,"|"],[".",".",".",".",".",".",".",".",".",".",".",7,8,10,".",".",".","|",".",".",".",".",".",".",".",".",".",".",".",12,13,15,".",".",".","|"],[".",".",".",".",".",".",".",".",".",7,9,".",".",".",".",".",".","|",".",".",".",".",".",".",".",".",11,12,14,".",".",".",".",".",".","|"],[".",".",".",".",".",".",7,9,10,".",".",".",".",".",".",".",".","|",".",".",".",".",".",".",12,14,".",".",".",".",".",".",".",".",".","|"],[".",".",".",7,9,10,".",".",".",".",".",".",".",".",".",".",".","|",".",".",".",12,14,15,".",".",".",".",".",".",".",".",".",".",".","|"],[7,8,10,".",".",".",".",".",".",".",".",".",".",".",".",".",".","|",12,14,15,".",".",".",".",".",".",".",".",".",".",".",".",".",".","|"]],[[".",".",".",".",".",".",".",".",".",".",".",".",".",".",".",8,10,"|",".",".",".",".",".",".",".",".",".",".",".",".",".",".",12,13,15,"|"],[".",".",".",".",".",".",".",".",".",".",".",".",8,10,11,".",".","|",".",".",".",".",".",".",".",".",".",".",".",".",13,15,".",".",".","|"],[".",".",".",".",".",".",".",".",".",7,9,10,".",".",".",".",".","|",".",".",".",".",".",".",".",".",".",12,14,15,".",".",".",".",".","|"],[".",".",".",".",".",".",7,8,10,".",".",".",".",".",".",".",".","|",".",".",".",".",".",".",12,14,15,".",".",".",".",".",".",".",".","|"],[".",".",".",7,8,10,".",".",".",".",".",".",".",".",".",".",".","|",".",".",".",12,13,15,".",".",".",".",".",".",".",".",".",".",".","|"],[6,8,10,".",".",".",".",".",".",".",".",".",".",".",".",".",".","|",12,13,15,".",".",".",".",".",".",".",".",".",".",".",".",".",".","|"]],[[".",".",".",".",".",".",".",".",".",".",".",".",8,10,11,12,"|",".",".",".",".",".",".",".",".",".",".",".",".",10,11,12,15,"|"],[".",".",".",".",".",".",".",".",".",".",8,10,".",".",".",".","|",".",".",".",".",".",".",".",".",".",".",10,13,".",".",".",".","|"],[".",".",".",".",".",".",".",7,8,9,".",".",".",".",".",".","|",".",".",".",".",".",".",".",".",9,12,".",".",".",".",".",".","|"],[".",".",".",".",".",7,10,".",".",".",".",".",".",".",".",".","|",".",".",".",".",".",10,12,13,".",".",".",".",".",".",".",".","|"],[".",".",".",7,10,".",".",".",".",".",".",".",".",".",".",".","|",".",".",".",10,12,".",".",".",".",".",".",".",".",".",".",".","|"],[8,10,11,".",".",".",".",".",".",".",".",".",".",".",".",".","|",10,11,12,".",".",".",".",".",".",".",".",".",".",".",".",".","|"]]],"numberofstrings":6,"notes":["E","B","G","D","A","E","B"],"capo":0,"stringnotes":["E4","B3","G3","D3","A2","E2"],"comments":["Stave 1:","Stave 2:","Stave 3:"],"timing":[["W","W","W","W","W","W","W","W","W","W","W","W","W","W","W","W","W",null,"W","W","W","W","W","W","W","W","W","W","W","W","W","W","W","W","W"],["W","W","W","W","W","W","W","W","W","W","W","W","W","W","W","W","W","W","W","W","W","W","W","W","W","W","W","W","W","W","W","W","W","W","W"],["W","W","W","W","W","W","W","W","W","W","W","W","W","W","W","W",null,"W","W","W","W","W","W","W","W","W","W","W","W","W","W","W","W"]],"timingvisible":false,"tabcounter":34,"stave":2,"totalstaves":3,"instrument":"6guitar","selectedtuning":"6_standard","version":"13"}

Member for

6 months
Submitted by mdrothfeld on Fri, 2020-04-24 21:18