A MINOR 2ND/3RD POSITION SCALES (NATURAL/AEOLIAN, HARMONIC, MELODIC)

Chords

01234567891011121314151617181920212223
E
B
G
D
A
E
B
0 1 2 3 4 5 6 7 8 9 10 11 12 13 14 15 16 17 18 19 20 21 22 23
(/) Slide Up  (\) Slide Down  (h) Hammer On  (p) Pull Off  (b) Bend (r) Release (v) Vibrato

Stave 1:

E|-------------------------------------------------7--8--10--|----------------------------------------------------------12--13--15--|--
B|------------------------------------------8--10------------|----------------------------------------------12--13--15--------------|--
G|--------------------------------7--9--10-------------------|--------------------------------------12--14--------------------------|--
D|----------------------7--9--10-----------------------------|--------------------------12--14--15----------------------------------|--
A|------------7--8--10---------------------------------------|--------------12--14--15----------------------------------------------|--
E|--7--8--10-------------------------------------------------|--12--13--15----------------------------------------------------------|--

Stave 2:

E|-------------------------------------------------7--8--10--|----------------------------------------------------------12--13--16--|--
B|------------------------------------------9--10------------|----------------------------------------------12--13--15--------------|--
G|--------------------------------7--9--10-------------------|--------------------------------------13--14--------------------------|--
D|----------------------7--9--10-----------------------------|--------------------------12--14--15----------------------------------|--
A|------------7--8--11---------------------------------------|--------------12--14--15----------------------------------------------|--
E|--7--8--10-------------------------------------------------|--12--13--16----------------------------------------------------------|--

Stave 3:

E|-----------------------------------------------7--8--10--|----------------------------------------------------------12--14--16--|--
B|-------------------------------------7--9--10------------|----------------------------------------------12--13--15--------------|--
G|-------------------------------7--9----------------------|----------------------------------11--13--14--------------------------|--
D|------------------6--7--9--10----------------------------|--------------------------12--14--------------------------------------|--
A|------------7--9-----------------------------------------|----------11--12--14--15----------------------------------------------|--
E|--7--8--10-----------------------------------------------|--12--14--------------------------------------------------------------|--

							http://www.guitartabcreator.com
{"strings":[[[".",".",".",".",".",".",".",".",".",".",".",".",".",".",7,8,10,"|",".",".",".",".",".",".",".",".",".",".",".",".",".",".",12,13,15,"|"],[".",".",".",".",".",".",".",".",".",".",".",".",8,10,".",".",".","|",".",".",".",".",".",".",".",".",".",".",".",12,13,15,".",".",".","|"],[".",".",".",".",".",".",".",".",".",7,9,10,".",".",".",".",".","|",".",".",".",".",".",".",".",".",".",12,14,".",".",".",".",".",".","|"],[".",".",".",".",".",".",7,9,10,".",".",".",".",".",".",".",".","|",".",".",".",".",".",".",12,14,15,".",".",".",".",".",".",".",".","|"],[".",".",".",7,8,10,".",".",".",".",".",".",".",".",".",".",".","|",".",".",".",12,14,15,".",".",".",".",".",".",".",".",".",".",".","|"],[7,8,10,".",".",".",".",".",".",".",".",".",".",".",".",".",".","|",12,13,15,".",".",".",".",".",".",".",".",".",".",".",".",".",".","|"]],[[".",".",".",".",".",".",".",".",".",".",".",".",".",".",7,8,10,"|",".",".",".",".",".",".",".",".",".",".",".",".",".",".",12,13,16,"|"],[".",".",".",".",".",".",".",".",".",".",".",".",9,10,".",".",".","|",".",".",".",".",".",".",".",".",".",".",".",12,13,15,".",".",".","|"],[".",".",".",".",".",".",".",".",".",7,9,10,".",".",".",".",".","|",".",".",".",".",".",".",".",".",".",13,14,".",".",".",".",".",".","|"],[".",".",".",".",".",".",7,9,10,".",".",".",".",".",".",".",".","|",".",".",".",".",".",".",12,14,15,".",".",".",".",".",".",".",".","|"],[".",".",".",7,8,11,".",".",".",".",".",".",".",".",".",".",".","|",".",".",".",12,14,15,".",".",".",".",".",".",".",".",".",".",".","|"],[7,8,10,".",".",".",".",".",".",".",".",".",".",".",".",".",".","|",12,13,16,".",".",".",".",".",".",".",".",".",".",".",".",".",".","|"]],[[".",".",".",".",".",".",".",".",".",".",".",".",".",".",7,8,10,"|",".",".",".",".",".",".",".",".",".",".",".",".",".",".",12,14,16,"|"],[".",".",".",".",".",".",".",".",".",".",".",7,9,10,".",".",".","|",".",".",".",".",".",".",".",".",".",".",".",12,13,15,".",".",".","|"],[".",".",".",".",".",".",".",".",".",7,9,".",".",".",".",".",".","|",".",".",".",".",".",".",".",".",11,13,14,".",".",".",".",".",".","|"],[".",".",".",".",".",6,7,9,10,".",".",".",".",".",".",".",".","|",".",".",".",".",".",".",12,14,".",".",".",".",".",".",".",".",".","|"],[".",".",".",7,9,".",".",".",".",".",".",".",".",".",".",".",".","|",".",".",11,12,14,15,".",".",".",".",".",".",".",".",".",".",".","|"],[7,8,10,".",".",".",".",".",".",".",".",".",".",".",".",".",".","|",12,14,".",".",".",".",".",".",".",".",".",".",".",".",".",".",".","|"]]],"numberofstrings":6,"notes":["E","B","G","D","A","E","B"],"capo":0,"stringnotes":["E4","B3","G3","D3","A2","E2"],"comments":["Stave 1:","Stave 2:","Stave 3:"],"timing":[["W","W","W","W","W","W","W","W","W","W","W","W","W","W","W","W","W","W","W","W","W","W","W","W","W","W","W","W","W","W","W","W","W","W","W"],["W","W","W","W","W","W","W","W","W","W","W","W","W","W","W","W","W",null,"W","W","W","W","W","W","W","W","W","W","W","W","W","W","W","W","W"],["W","W","W","W","W","W","W","W","W","W","W","W","W","W","W","W","W",null,"W","W","W","W","W","W","W","W","W","W","W","W","W","W","W","W","W"]],"timingvisible":false,"tabcounter":36,"stave":2,"totalstaves":3,"instrument":"6guitar","selectedtuning":"6_standard","version":"13"}

Member for

6 months
Submitted by mdrothfeld on Fri, 2020-04-24 16:33