I Volunteer - Glenn Frey (SOLO)

Chords

01234567891011121314151617181920212223
E
B
G
D
A
E
B
0 1 2 3 4 5 6 7 8 9 10 11 12 13 14 15 16 17 18 19 20 21 22 23
(/) Slide Up  (\) Slide Down  (h) Hammer On  (p) Pull Off  (b) Bend (r) Release (v) Vibrato

Stave 1:

E|----------------------------------------------------------------|--
B|--17b18----------------------------------11---------------------|--
G|---------17b19b17b19--12b14b12b14b12p10-------------10--12------|--
D|---------------------------------------------10/12----------12--|--
A|----------------------------------------------------------------|--
E|----------------------------------------------------------------|--

Stave 2:

E|--------------------------------------10------------------------------------|--
B|---------15--18--18v--13b15b13b15b13-----------------11---------------------|--
G|--15/17-----------------------------------13\12--10-------------10--12------|--
D|---------------------------------------------------------10/12----------12--|--
A|----------------------------------------------------------------------------|--
E|----------------------------------------------------------------------------|--

Stave 3:

E|-----------------------------------------9--10--12--13--12--10--12--13--15--|--
B|-----------------10--11--10----------10-------------------------------------|--
G|---------10--12--------------12--10-----------------------------------------|--
D|--10/12---------------------------------------------------------------------|--
A|----------------------------------------------------------------------------|--
E|----------------------------------------------------------------------------|--

Stave 4:

E|--16/17--17p15------------------------------------------------------------------|--
B|----------------18--13h15--13h15--13--15----------------------------------------|--
G|------------------------------------------14--12--12--14--12/14--12--10--12b10--|--
D|--------------------------------------------------------------------------------|--
A|--------------------------------------------------------------------------------|--
E|--------------------------------------------------------------------------------|--

Stave 5:

E|--5--6--5--5--7--3--
B|--6--6--5--6--8--5--
G|--5--7--6--7--7--5--
D|--------------------
A|--------------------
E|--------------------

							http://www.guitartabcreator.com
Instruments
{"strings":[[[".",".",".",".",".",".",".",".",".",".",".",".",".",".",".",".",".",".",".",".",".",".",".",".",".",".",".",".","|"],[17,"b",18,".",".",".",".",".",".",".",".",".",".",".",".",".",".",".",".",".",".",11,".",".",".",".",".",".","|"],[".",".",".",17,"b",19,"b",17,"b",19,12,"b",14,"b",12,"b",14,"b",12,"p",10,".",".",".",".",10,12,".","|"],[".",".",".",".",".",".",".",".",".",".",".",".",".",".",".",".",".",".",".",".",".",".",10,"/",12,".",".",12,"|"],[".",".",".",".",".",".",".",".",".",".",".",".",".",".",".",".",".",".",".",".",".",".",".",".",".",".",".",".","|"],[".",".",".",".",".",".",".",".",".",".",".",".",".",".",".",".",".",".",".",".",".",".",".",".",".",".",".",".","|"]],[[".",".",".",".",".",".",".",".",".",".",".",".",".",".",".",".",10,".",".",".",".",".",".",".",".",".",".",".","|"],[".",".",".",15,18,18,"v",13,"b",15,"b",13,"b",15,"b",13,".",".",".",".",".",11,".",".",".",".",".",".","|"],[15,"/",17,".",".",".",".",".",".",".",".",".",".",".",".",".",".",13,"\\",12,10,".",".",".",".",10,12,".","|"],[".",".",".",".",".",".",".",".",".",".",".",".",".",".",".",".",".",".",".",".",".",".",10,"/",12,".",".",12,"|"],[".",".",".",".",".",".",".",".",".",".",".",".",".",".",".",".",".",".",".",".",".",".",".",".",".",".",".",".","|"],[".",".",".",".",".",".",".",".",".",".",".",".",".",".",".",".",".",".",".",".",".",".",".",".",".",".",".",".","|"]],[[".",".",".",".",".",".",".",".",".",".",".",9,10,12,13,12,10,12,13,15,"|"],[".",".",".",".",".",10,11,10,".",".",10,".",".",".",".",".",".",".",".",".","|"],[".",".",".",10,12,".",".",".",12,10,".",".",".",".",".",".",".",".",".",".","|"],[10,"/",12,".",".",".",".",".",".",".",".",".",".",".",".",".",".",".",".",".","|"],[".",".",".",".",".",".",".",".",".",".",".",".",".",".",".",".",".",".",".",".","|"],[".",".",".",".",".",".",".",".",".",".",".",".",".",".",".",".",".",".",".",".","|"]],[[16,"/",17,17,"p",15,null,".",".",".",".",".",".",".",".",".",".",".",".",".",".",".",".",".",".",".",".",".","|"],[".",".",".",".",".",".",null,18,13,"h",15,13,"h",15,13,15,".",".",".",".",".",".",".",".",".",".",".",".","|"],[".",".",".",".",".",".",null,".",".",".",".",".",".",".",".",".",14,12,12,14,12,"/",14,12,10,12,"b",10,"|"],[".",".",".",".",".",".",null,".",".",".",".",".",".",".",".",".",".",".",".",".",".",".",".",".",".",".",".",".","|"],[".",".",".",".",".",".",null,".",".",".",".",".",".",".",".",".",".",".",".",".",".",".",".",".",".",".",".",".","|"],[".",".",".",".",".",".",null,".",".",".",".",".",".",".",".",".",".",".",".",".",".",".",".",".",".",".",".",".","|"]],[[5,6,5,5,7,3],[6,6,5,6,8,5],[5,7,6,7,7,5],[".",".",".",".",".","."],[".",".",".",".",".","."],[".",".",".",".",".","."]]],"numberofstrings":6,"notes":["E","B","G","D","A","E","B"],"capo":0,"stringnotes":["E4","B3","G3","D3","A2","E2"],"comments":["Stave 1:","Stave 2:","Stave 3:","Stave 4:","Stave 5:"],"timing":[["W",null,"W","W",null,"W",null,"W",null,"W","W","W","W","W","W",null,"W",null,"W","W","W","W","W","W","W","W","W","W","W"],["W",null,"W","W","W","W",null,"W",null,"W",null,"W",null,"W",null,"W","W","W",null,"W","W","W","W",null,"W","W","W","W"],["W",null,"W","W","W","W","W","W","W","W","W","W","W","W","W","W","W","W","W","W"],["W",null,"W","W",null,"W","W","W","W",null,"W","W",null,"W","W","W","W","W","W","W","W",null,"W","W","W","W",null,"W"],["W","W","W","W","W","W"]],"timingvisible":false,"tabcounter":5,"stave":4,"totalstaves":5,"instrument":"6guitar","selectedtuning":"6_standard","version":"13"}

Member for

6 months
Submitted by mdrothfeld on Wed, 2020-05-06 18:39