FWTYH

Chords

01234567891011121314151617181920212223
E
B
G
D
A
E
B
0 1 2 3 4 5 6 7 8 9 10 11 12 13 14 15 16 17 18 19 20 21 22 23
(/) Slide Up  (\) Slide Down  (h) Hammer On  (p) Pull Off  (b) Bend (r) Release (v) Vibrato

Stave 1:

E|---------------------------|---------------------|------------------------|----------------------
B|---------------------------|--7--7---------------|------------------------|--10------------------
G|------------------------7--|--7--7v-----------7--|--9b11b9p7-----------7--|------9--7--9b11b9p7--
D|------------------7--9-----|---------9--7--9-----|------------9--7--9-----|----------------------
A|---------7--8--9-----------|---------------------|------------------------|----------------------
E|--7--10--------------------|---------------------|------------------------|----------------------

Stave 2:

E|--------|-----------10---------12--|--12--13--14--12--13--14--|--12--13--14--12--13--14--
B|--------|-----7/10------10/12------|--------------------------|--------------------------
G|-----7--|--------------------------|--------------------------|--------------------------
D|--9-----|--9-----------------------|--------------------------|--------------------------
A|--------|--------------------------|--------------------------|--------------------------
E|--------|--------------------------|--------------------------|--------------------------

Stave 3:

E|--13p10---------|-----------------------------------|---------------------------------------------|--
B|---------13p10--|---------13------------------------|---------------------------------------------|--
G|----------------|--12b14------14b12p10------10------|--10------------------------10v--------------|--
D|----------------|-----------------------12------12--|--10--10h12p10------10--12-------12--10--12--|--
A|----------------|-----------------------------------|----------------12---------------------------|--
E|----------------|-----------------------------------|---------------------------------------------|--

Stave 4:

E|----------------------------|--------------------------------|---------------------|--
B|--10-----12------10---------|--10---------12------10---------|---------------------|--
G|--10h11--12------10h11------|--10h11------12------10h11------|-----------7v--------|--
D|-------------12---------12--|---------12------12---------12--|--9--7--9------9--7--|--
A|----------------------------|--------------------------------|---------------------|--
E|----------------------------|--------------------------------|---------------------|--

Stave 5:

E|---------------------|-------------------------|------------------|------------|--
B|--9--9--9------------|-----------10------------|--------10--------|------------|--
G|--9--9--9b11b9p7-----|--7--9b11------11--11b9--|--9b11------11b9--|--7v-----7--|--
D|------------------9--|-------------------------|------------------|------9-----|--
A|---------------------|-------------------------|------------------|------------|--
E|---------------------|-------------------------|------------------|------------|--

Stave 6:

E|-----------------------------|------|--
B|-----------10---------10-----|--7---|--
G|--------7--9-b11b9p7--9-b11--|--7---|--
D|--7--9-----------------------|--7v--|--
A|-----------------------------|------|--
E|-----------------------------|------|--

							http://www.guitartabcreator.com
Instruments
{"title":"FWTYH","strings":[[[".",".",".",".",".",".",".",".","|",".",".",".",".",".",".",".","|",".",".",".",".",".",".",".",".",".",".",".","|",".",".",".",".",".",".",".",".",".","."],[".",".",".",".",".",".",".",".","|",7,7,".",".",".",".",".","|",".",".",".",".",".",".",".",".",".",".",".","|",10,".",".",".",".",".",".",".",".","."],[".",".",".",".",".",".",".",7,"|",7,7,"v",".",".",".",7,"|",9,"b",11,"b",9,"p",7,".",".",".",7,"|",".",9,7,9,"b",11,"b",9,"p",7],[".",".",".",".",".",7,9,".","|",".",".",".",9,7,9,".","|",".",".",".",".",".",".",".",9,7,9,".","|",".",".",".",".",".",".",".",".",".","."],[".",".",7,8,9,".",".",".","|",".",".",".",".",".",".",".","|",".",".",".",".",".",".",".",".",".",".",".","|",".",".",".",".",".",".",".",".",".","."],[7,10,".",".",".",".",".",".","|",".",".",".",".",".",".",".","|",".",".",".",".",".",".",".",".",".",".",".","|",".",".",".",".",".",".",".",".",".","."]],[[".",".","|",".",".",".",".",10,".",".",".",12,"|",12,13,14,12,13,14,"|",12,13,14,12,13,14],[".",".","|",".",7,"/",10,".",10,"/",12,".","|",".",".",".",".",".",".","|",".",".",".",".",".","."],[".",7,"|",".",".",".",".",".",".",".",".",".","|",".",".",".",".",".",".","|",".",".",".",".",".","."],[9,".","|",9,".",".",".",".",".",".",".",".","|",".",".",".",".",".",".","|",".",".",".",".",".","."],[".",".","|",".",".",".",".",".",".",".",".",".","|",".",".",".",".",".",".","|",".",".",".",".",".","."],[".",".","|",".",".",".",".",".",".",".",".",".","|",".",".",".",".",".",".","|",".",".",".",".",".","."]],[[13,"p",10,".",".",".","|",".",".",".",".",".",".",".",".",".",".",".",".","|",".",".",".",".",".",".",".",".",".",".",".",".",".",".","|"],[".",".",".",13,"p",10,"|",".",".",".",13,".",".",".",".",".",".",".",".","|",".",".",".",".",".",".",".",".",".",".",".",".",".",".","|"],[".",".",".",".",".",".","|",12,"b",14,".",14,"b",12,"p",10,".",10,".","|",10,".",".",".",".",".",".",".",".",10,"v",".",".",".","|"],[".",".",".",".",".",".","|",".",".",".",".",".",".",".",".",".",12,".",12,"|",10,10,"h",12,"p",10,".",10,12,".",".",12,10,12,"|"],[".",".",".",".",".",".","|",".",".",".",".",".",".",".",".",".",".",".",".","|",".",".",".",".",".",".",12,".",".",".",".",".",".",".","|"],[".",".",".",".",".",".","|",".",".",".",".",".",".",".",".",".",".",".",".","|",".",".",".",".",".",".",".",".",".",".",".",".",".",".","|"]],[[".",".",".",".",".",".",".",".",".","|",".",".",".",".",".",".",".",".",".",".","|",".",".",".",".",".",".",".","|"],[10,".",".",12,".",10,".",".",".","|",10,".",".",".",12,".",10,".",".",".","|",".",".",".",".",".",".",".","|"],[10,"h",11,12,".",10,"h",11,".","|",10,"h",11,".",12,".",10,"h",11,".","|",".",".",".",7,"v",".",".","|"],[".",".",".",".",12,".",".",".",12,"|",".",".",".",12,".",12,".",".",".",12,"|",9,7,9,".",".",9,7,"|"],[".",".",".",".",".",".",".",".",".","|",".",".",".",".",".",".",".",".",".",".","|",".",".",".",".",".",".",".","|"],[".",".",".",".",".",".",".",".",".","|",".",".",".",".",".",".",".",".",".",".","|",".",".",".",".",".",".",".","|"]],[[".",".",".",".",".",".",".",".",".",".","|",".",".",".",".",".",".",".",".",".","|",".",".",".",".",".",".",".","|",".",".",".",".","|"],[9,9,9,".",".",".",".",".",".",".","|",".",".",".",".",10,".",".",".",".","|",".",".",".",10,".",".",".","|",".",".",".",".","|"],[9,9,9,"b",11,"b",9,"p",7,".","|",7,9,"b",11,".",11,11,"b",9,"|",9,"b",11,".",11,"b",9,"|",7,"v",".",7,"|"],[".",".",".",".",".",".",".",".",".",9,"|",".",".",".",".",".",".",".",".",".","|",".",".",".",".",".",".",".","|",".",".",9,".","|"],[".",".",".",".",".",".",".",".",".",".","|",".",".",".",".",".",".",".",".",".","|",".",".",".",".",".",".",".","|",".",".",".",".","|"],[".",".",".",".",".",".",".",".",".",".","|",".",".",".",".",".",".",".",".",".","|",".",".",".",".",".",".",".","|",".",".",".",".","|"]],[[".",".",".",".",".",".",".",".",".",".",".",".",".","|",".",".","|"],[".",".",".",10,".",".",".",".",".",".",10,".",".","|",7,".","|"],[".",".",7,9,"b",11,"b",9,"p",7,9,"b",11,"|",7,".","|"],[7,9,".",".",".",".",".",".",".",".",".",".",".","|",7,"v","|"],[".",".",".",".",".",".",".",".",".",".",".",".",".","|",".",".","|"],[".",".",".",".",".",".",".",".",".",".",".",".",".","|",".",".","|"]]],"numberofstrings":6,"notes":["E","B","G","D","A","E","B"],"capo":0,"stringnotes":["E4","B3","G3","D3","A2","E2"],"comments":["Stave 1:","Stave 2:","Stave 3:","Stave 4:","Stave 5:","Stave 6:"],"timing":[["W","W","W","W","W","W","W","W",null,"W","W",null,"W","W","W","W",null,"W",null,"W",null,"W",null,"W","W","W","W","W",null,"W","W","W","W",null,"W",null,"W",null,"W"],["W","W","W","W","W","W","W","W","W","W","W","W",null,"W","W","W","W","W","W","W","W","W","W","W","W","W","W",null,"W","W",null,"W"],["W",null,"W","W",null,"W","W","W","W","W","W","W","W","W","W","W","W","W","W",null,"W","W",null,"W",null,"W","W","W","W","W",null,"W","W","W"],["W","W","W","W","W","W",null,"W","W",null,"W",null,"W","W","W","W","W",null,"W","W",null,"W","W","W","W",null,"W","W"],["W","W","W",null,"W",null,"W",null,"W","W","W","W","W","W","W","W","W","W","W","W",null,"W",null,"W","W","W",null,"W","W","W","W","W","W"],["W","W","W","W",null,"W",null,"W","W","W","W","W","W",null,"W"]],"timingvisible":false,"tabcounter":17,"stave":5,"totalstaves":6,"instrument":"6guitar","selectedtuning":"6_standard","version":"13"}

Member for

6 months
Submitted by mdrothfeld on Sun, 2020-03-22 18:31