Floor and More Arpeggios

Chords

01234567891011121314151617181920212223
E
B
G
D
A
E
B
0 1 2 3 4 5 6 7 8 9 10 11 12 13 14 15 16 17 18 19 20 21 22 23
(/) Slide Up  (\) Slide Down  (h) Hammer On  (p) Pull Off  (b) Bend (r) Release (v) Vibrato

Stave 1:

E|-------------|------------|-------------|------------|------------|--
B|-------------|------------|-------------|------------|------------|--
G|-------------|------------|-------------|------------|---------7--|--
D|-------------|---------7--|----------8--|-----7--10--|------8-----|--
A|---------10--|------8-----|------10-----|--8---------|--10--------|--
E|--8--11------|--10--------|--11---------|------------|------------|--

Stave 2:

E|------------|------------|------------|--------------|------------|--
B|------------|------------|---------8--|----------10--|-----8--11--|--
G|---------8--|-----7--10--|------8-----|------10------|--8---------|--
D|--7--10-----|--8---------|--10--------|--12----------|------------|--
A|------------|------------|------------|--------------|------------|--
E|------------|------------|------------|--------------|------------|--

Stave 3:

E|----------8--|---------10--|------8--11--|------10--13--|--|--|--
B|------10-----|--8--11------|--10---------|--11----------|--|--|--
G|--10---------|-------------|-------------|--------------|--|--|--
D|-------------|-------------|-------------|--------------|--|--|--
A|-------------|-------------|-------------|--------------|--|--|--
E|-------------|-------------|-------------|--------------|--|--|--

							http://www.guitartabcreator.com
Instruments
{"strings":[[[".",".",".","|",".",".",".","|",".",".",".","|",".",".",".","|",".",".",".","|"],[".",".",".","|",".",".",".","|",".",".",".","|",".",".",".","|",".",".",".","|"],[".",".",".","|",".",".",".","|",".",".",".","|",".",".",".","|",".",".",7,"|"],[".",".",".","|",".",".",7,"|",".",".",8,"|",".",7,10,"|",".",8,".","|"],[".",".",10,"|",".",8,".","|",".",10,".","|",8,".",".","|",10,".",".","|"],[8,11,".","|",10,".",".","|",11,".",".","|",".",".",".","|",".",".",".","|"]],[[".",".",".","|",".",".",".","|",".",".",".","|",".",".",".","|",".",".",".","|"],[".",".",".","|",".",".",".","|",".",".",8,"|",".",".",10,"|",".",8,11,"|"],[".",".",8,"|",".",7,10,"|",".",8,".","|",".",10,".","|",8,".",".","|"],[7,10,".","|",8,".",".","|",10,".",".","|",12,".",".","|",".",".",".","|"],[".",".",".","|",".",".",".","|",".",".",".","|",".",".",".","|",".",".",".","|"],[".",".",".","|",".",".",".","|",".",".",".","|",".",".",".","|",".",".",".","|"]],[[".",".",8,"|",".",".",10,"|",".",8,11,"|",".",10,13,"|","|","|"],[".",10,".","|",8,11,".","|",10,".",".","|",11,".",".","|","|","|"],[10,".",".","|",".",".",".","|",".",".",".","|",".",".",".","|","|","|"],[".",".",".","|",".",".",".","|",".",".",".","|",".",".",".","|","|","|"],[".",".",".","|",".",".",".","|",".",".",".","|",".",".",".","|","|","|"],[".",".",".","|",".",".",".","|",".",".",".","|",".",".",".","|","|","|"]]],"numberofstrings":6,"notes":["E","B","G","D","A","E","B"],"capo":0,"stringnotes":["E4","B3","G3","D3","A2","E2"],"comments":["Stave 1:","Stave 2:","Stave 3:"],"timing":[["W","W","W",null,"W","W","W",null,"W","W","W",null,"W","W","W",null,"W","W","W"],["W","W","W",null,"W","W","W",null,"W","W","W",null,"W","W","W",null,"W","W","W"],["W","W","W",null,"W","W","W",null,"W","W","W",null,"W","W","W"]],"timingvisible":false,"tabcounter":18,"stave":2,"totalstaves":3,"instrument":"6guitar","selectedtuning":"6_standard","version":"13"}

Member for

6 months
Submitted by mdrothfeld on Fri, 2020-05-08 19:27