C∆7 - Bm7b5 - Am7 - Ab7

Chords

01234567891011121314151617181920212223
E
B
G
D
A
E
B
0 1 2 3 4 5 6 7 8 9 10 11 12 13 14 15 16 17 18 19 20 21 22 23
(/) Slide Up  (\) Slide Down  (h) Hammer On  (p) Pull Off  (b) Bend (r) Release (v) Vibrato

Stave 1:

E|--------------------------------|----------------8----------------|--
B|--------------------------------|---------8--12-----12--8---------|--
G|--------------------------------|------9-------------------9------|--
D|------------9--10--9------------|--10-------------------------10--|--
A|-----7--10------------10--7-----|---------------------------------|--
E|--8--------------------------8--|---------------------------------|--

Stave 2:

E|----------------7----------------|--------------------------------|--
B|------------10-----10------------|------------8--10--8------------|--
G|-----7--10-------------10--7-----|---------9------------9---------|--
D|--9---------------------------9--|--7--10------------------10--7--|--
A|---------------------------------|--------------------------------|--
E|---------------------------------|--------------------------------|--

Stave 3:

E|----------------------------|--
B|------------7--9--7---------|--
G|---------8-----------8------|--
D|--6--10-----------------10--|--
A|----------------------------|--
E|----------------------------|--

Stave 4:

E|-----------------------------|--------7--10--12--10--7-----------
B|-----------------------------|-----9--------------------9--------
G|-----------7--9--7-----------|--9--------------------------9-----
D|-----6--9-----------9--6-----|-----------------------------------
A|--7-----------------------7--|-----------------------------------
E|-----------------------------|-----------------------------------

							http://www.guitartabcreator.com
Instruments
{"strings":[[[".",".",".",".",".",".",".",".",".","|",".",".",".",".",8,".",".",".",".","|"],[".",".",".",".",".",".",".",".",".","|",".",".",8,12,".",12,8,".",".","|"],[".",".",".",".",".",".",".",".",".","|",".",9,".",".",".",".",".",9,".","|"],[".",".",".",9,10,9,".",".",".","|",10,".",".",".",".",".",".",".",10,"|"],[".",7,10,".",".",".",10,7,".","|",".",".",".",".",".",".",".",".",".","|"],[8,".",".",".",".",".",".",".",8,"|",".",".",".",".",".",".",".",".",".","|"]],[[".",".",".",".",7,".",".",".",".","|",".",".",".",".",".",".",".",".",".","|"],[".",".",".",10,".",10,".",".",".","|",".",".",".",8,10,8,".",".",".","|"],[".",7,10,".",".",".",10,7,".","|",".",".",9,".",".",".",9,".",".","|"],[9,".",".",".",".",".",".",".",9,"|",7,10,".",".",".",".",".",10,7,"|"],[".",".",".",".",".",".",".",".",".","|",".",".",".",".",".",".",".",".",".","|"],[".",".",".",".",".",".",".",".",".","|",".",".",".",".",".",".",".",".",".","|"]],[[".",".",".",".",".",".",".",".","|"],[".",".",".",7,9,7,".",".","|"],[".",".",8,".",".",".",8,".","|"],[6,10,".",".",".",".",".",10,"|"],[".",".",".",".",".",".",".",".","|"],[".",".",".",".",".",".",".",".","|"]],[[".",".",".",".",".",".",".",".",".","|",".",".",7,10,12,10,7,".",".","_"],[".",".",".",".",".",".",".",".",".","|",".",9,".",".",".",".",".",9,".","_"],[".",".",".",7,9,7,".",".",".","|",9,".",".",".",".",".",".",".",9,"_"],[".",6,9,".",".",".",9,6,".","|",".",".",".",".",".",".",".",".",".","_"],[7,".",".",".",".",".",".",".",7,"|",".",".",".",".",".",".",".",".",".","_"],[".",".",".",".",".",".",".",".",".","|",".",".",".",".",".",".",".",".",".","_"]]],"numberofstrings":6,"notes":["E","B","G","D","A","E","B"],"capo":0,"stringnotes":["E4","B3","G3","D3","A2","E2"],"comments":["Stave 1:","Stave 2:","Stave 3:","Stave 4:"],"timing":[["W","W","W","W","W","W","W","W","W",null,"W","W","W","W","W","W","W","W","W"],["W","W","W","W","W","W","W","W","W",null,"W","W","W","W","W","W","W","W","W"],["W","W","W","W","W","W","W","W","W","W","W","W","W","W","W","W","W","W"],["W","W","W","W","W","W","W","W","W",null,"W","W","W","W","W","W","W","W","W"]],"timingvisible":false,"tabcounter":9,"stave":2,"totalstaves":4,"instrument":"6guitar","selectedtuning":"6_standard","version":"13"}

Member for

4 months 2 weeks
Submitted by mdrothfeld on Sat, 2020-08-01 19:26