Am - Pentatonic Scale - Adjusted w/ Arpeggios

Chords

01234567891011121314151617181920212223
E
B
G
D
A
E
B
0 1 2 3 4 5 6 7 8 9 10 11 12 13 14 15 16 17 18 19 20 21 22 23
(/) Slide Up  (\) Slide Down  (h) Hammer On  (p) Pull Off  (b) Bend (r) Release (v) Vibrato

Stave 1:

E|--------------------------------5--8--|--
B|--------------------------5--8--------|--
G|--------------------5--7--------------|--
D|--------------5--7--------------------|--
A|--------5--7--------------------------|--
E|--5--8--------------------------------|--

Stave 2:

E|--------------------------------------------6--8--|--
B|-----------------------------------5--6--9--------|--
G|-----------------------------5--6-----------------|--
D|--------------------5--6--8-----------------------|--
A|-----------4--7--8--------------------------------|--
E|--4--6--8-----------------------------------------|--

Stave 3:

E|--------------------------------------5--8--|--
B|-----------------------------5--6--8--------|--
G|-----------------------5--7-----------------|--
D|-----------------5--7-----------------------|--
A|--------5--7--8-----------------------------|--
E|--5--8--------------------------------------|--

Stave 4:

E|--------------------------------------5--7--8--|--
B|--------------------------------5--8-----------|--
G|-----------------------4--5--7-----------------|--
D|-----------------5--7--------------------------|--
A|-----------5--7--------------------------------|--
E|--5--7--8--------------------------------------|--

							http://www.guitartabcreator.com
Instruments
{"strings":[[[".",".",".",".",".",".",".",".",".",".",5,8,"|"],[".",".",".",".",".",".",".",".",5,8,".",".","|"],[".",".",".",".",".",".",5,7,".",".",".",".","|"],[".",".",".",".",5,7,".",".",".",".",".",".","|"],[".",".",5,7,".",".",".",".",".",".",".",".","|"],[5,8,".",".",".",".",".",".",".",".",".",".","|"]],[[".",".",".",".",".",".",".",".",".",".",".",".",".",".",6,8,"|"],[".",".",".",".",".",".",".",".",".",".",".",5,6,9,".",".","|"],[".",".",".",".",".",".",".",".",".",5,6,".",".",".",".",".","|"],[".",".",".",".",".",".",5,6,8,".",".",".",".",".",".",".","|"],[".",".",".",4,7,8,".",".",".",".",".",".",".",".",".",".","|"],[4,6,8,".",".",".",".",".",".",".",".",".",".",".",".",".","|"]],[[".",".",".",".",".",".",".",".",".",".",".",".",5,8,"|"],[".",".",".",".",".",".",".",".",".",5,6,8,".",".","|"],[".",".",".",".",".",".",".",5,7,".",".",".",".",".","|"],[".",".",".",".",".",5,7,".",".",".",".",".",".",".","|"],[".",".",5,7,8,".",".",".",".",".",".",".",".",".","|"],[5,8,".",".",".",".",".",".",".",".",".",".",".",".","|"]],[[".",".",".",".",".",".",".",".",".",".",".",".",5,7,8,"|"],[".",".",".",".",".",".",".",".",".",".",5,8,".",".",".","|"],[".",".",".",".",".",".",".",4,5,7,".",".",".",".",".","|"],[".",".",".",".",".",5,7,".",".",".",".",".",".",".",".","|"],[".",".",".",5,7,".",".",".",".",".",".",".",".",".",".","|"],[5,7,8,".",".",".",".",".",".",".",".",".",".",".",".","|"]]],"numberofstrings":6,"notes":["E","B","G","D","A","E","B"],"capo":0,"stringnotes":["E4","B3","G3","D3","A2","E2"],"comments":["Stave 1:","Stave 2:","Stave 3:","Stave 4:"],"timing":[["W","W","W","W","W","W","W","W","W","W","W","W"],["W","W","W","W","W","W","W","W","W","W","W","W","W","W","W","W"],["W","W","W","W","W","W","W","W","W","W","W","W","W","W"],["W","W","W","W","W","W","W","W","W","W","W","W","W","W","W"]],"timingvisible":false,"tabcounter":16,"stave":3,"totalstaves":4,"instrument":"6guitar","selectedtuning":"6_standard","version":"13"}

Member for

8 months 1 week
Submitted by mdrothfeld on Fri, 2020-09-25 13:09