Sound will begin in 5 seconds

Samba Pa Ti Montreux 2011

01234567891011121314151617181920212223
E
B
G
D
A
E
B
0 1 2 3 4 5 6 7 8 9 10 11 12 13 14 15 16 17 18 19 20 21 22 23
Song Science #1: How Pros Use 6 Chords to Write Hit Songs
(/) Slide Up  (\) Slide Down  (h) Hammer On  (p) Pull Off  (b) Bend (r) Release (v) Vibrato

Stave 1:

E|-----------------------------------------------------------0-------------------------------------
B|------------------8--------------6h7--6h7v--------------0---------------------8-------------6h7--
G|------------7--9-----6h7v-----7----------------------0------------------7--9-----6h7-----7-------
D|--7--9--10-----------------9----------------------2-----------7--9--10----------------9----------
A|-----------------------------------------------2-------------------------------------------------
E|--------------------------------------------0----------------------------------------------------

Stave 2:

E|-------5h7p5--------5----7-----10--10--10--10--
B|--6h7---------8--5---b8---b10------------------
G|-----------------------------------------------
D|-----------------------------------------------
A|-----------------------------------------------
E|-----------------------------------------------

http://www.guitartabcreator.com
Guitar Tab Creator is intended to store guitar tab created through the tool. It currently does not support in-line text editing. Any text you place in here will be lost. If you need to comment on your tab, please use the "Tab Notes" section located below.