poggers tab (WIP)

01234567891011121314151617181920212223
E
B
G
D
A
E
B
0 1 2 3 4 5 6 7 8 9 10 11 12 13 14 15 16 17 18 19 20 21 22 23
(/) Slide Up  (\) Slide Down  (h) Hammer On  (p) Pull Off  (b) Bend (r) Release (v) Vibrato

Stave 1:

Db|---------------------------
Ab|---------------------------
E |---------------------------
B |---------------------------
Gb|--0-----8-5--0-----8-5--0--
B |--0-----8-5--0-----8-5--0--

Stave 2:

Db|---------------------------------
Ab|---------------------------------
E |---------------------------------
B |--------7------------------------
Gb|--0--0-----8v-----0--0--8p7-5/7--
B |--0--0------------0--0--8-7\5-7--

							http://www.guitartabcreator.com
Chords

genre
Instruments
{"strings":[[[".","_",".",".",".",".","_",".",".",".","."],[".","_",".",".",".",".","_",".",".",".","."],[".","_",".",".",".",".","_",".",".",".","."],[".","_",".",".",".",".","_",".",".",".","."],[0,"_",8,"\\",5,0,"_",8,"\\",5,0],[0,"_",8,"\\",5,0,"_",8,"\\",5,0]],[[".",".",".",".",".","_",".",".",".",".",".",".",".",".","."],[".",".",".",".",".","_",".",".",".",".",".",".",".",".","."],[".",".",".",".",".","_",".",".",".",".",".",".",".",".","."],[".",".",7,".",".","_",".",".",".",".",".",".",".",".","."],[0,0,".",8,"v","_",0,0,8,"p",7,".",5,"/",7],[0,0,".",".",".","_",0,0,8,".",7,"\\",5,".",7]]],"numberofstrings":6,"notes":["CsDb","GsAb","E","B","FsGb","B"],"capo":0,"stringnotes":["Db3","Ab2","E2","B1","Gb1","B0"],"comments":["Stave 1:","Stave 2:"],"timing":[["W","W","W","W","W","W",null,"W",null,"W","W"],["W","W","W","W",null,null,"W","W","W",null,"W",null,"W",null,"W"]],"timingvisible":false,"tabcounter":14,"stave":1,"totalstaves":2,"instrument":"6guitar","selectedtuning":"Drop B","version":"13"}

Member for

1 month 2 weeks
Submitted by McnnFimillan on Fri, 2020-12-04 16:40