Sound will begin in 5 seconds

Legends Of The Fall - The Ludlows

Chords
01234567891011121314151617181920212223
E
B
G
D
A
E
B
0 1 2 3 4 5 6 7 8 9 10 11 12 13 14 15 16 17 18 19 20 21 22 23
Song Science #1: How Pros Use 6 Chords to Write Hit Songs
(/) Slide Up  (\) Slide Down  (h) Hammer On  (p) Pull Off  (b) Bend (r) Release (v) Vibrato

Stave 1:

E|-----5--3--2-----|--------3\2--0-----|-----------0--2--|--------0--------|-------------------|--
B|-----------------|--3----------------|-----2--3--------|-----------3-----|-----------3r0-----|--
G|--2-----------2--|-----2-------------|--2--------------|-----4--------4--|----------------2--|--
D|-----------0-----|----------------2--|-----------------|--4--------------|-----5----------0--|--
A|-----------------|-------------0-----|--------------2--|-----------------|--5-----5----------|--
E|-----------------|-------------------|-----------------|--------------3--|-------------------|--

Stave 2:

E|----------------------------|-----------------------|-----5--3--2-----|--------2--5--7--|--
B|----------------------------|-----------------------|-----------------|--3--------------|--
G|--2h4r2r0-----------0h2--4--|--------4--6-----------|--2-----------2--|-----2-----------|--
D|-----------4--4-------------|-----5--------------7--|-----------0-----|--------------5--|--
A|-----------2-----2----------|--5-----5--------7-----|-----------------|-----------------|--
E|-------------------------3--|-----------5-----------|-----------------|-----------------|--

Stave 3:

E|--------5--2--0h2r0--|-----0--2h3r2--0-----|-------------------|-----------------|-----------------|--
B|-----8---------------|--3---------------3--|-------------------|-----------------|-----------------|--
G|--7------------------|---------------------|--4-----------2r0--|-----------------|--2--5--4-----5--|--
D|---------------------|---------------------|--------5----------|--4--4--------4--|-----------------|--
A|--------------0------|--------2------------|-----5-----5-------|--5-----5--5-----|-----3-----3-----|--
E|---------------------|---------------------|--3----------------|-----------------|-----------------|--

Stave 4:

E|-----------------|-----------------|-----------------|--------------------0h2--|--
B|-----------------|-----------------|-----------------|--------------------3----|--
G|--4--2-----0--2--|--------2--------|--------2--5--4--|-----5--4--2-----0--2----|--
D|--------------0--|--------0--------|-----4-----------|--------------------0----|--
A|-----------------|--0--5-----0--5--|--5--------3-----|--3----------------------|--
E|--3-----3--------|-----------------|-----------------|--------3-----3----------|--

http://www.guitartabcreator.com
Guitar Tab Creator is intended to store guitar tab created through the tool. It currently does not support in-line text editing. Any text you place in here will be lost. If you need to comment on your tab, please use the "Tab Notes" section located below.