Can You Feel the Love Tonight - Ukulele

01234567891011121314151617181920212223
E
B
G
D
A
E
B
0 1 2 3 4 5 6 7 8 9 10 11 12 13 14 15 16 17 18 19 20 21 22 23
(/) Slide Up  (\) Slide Down  (h) Hammer On  (p) Pull Off  (b) Bend (r) Release (v) Vibrato

Stave 1:

A|-----0-----|-----3-----|-----------|---0-------|-----------|-3-8---0---|-----0-----|---3-------|-
E|-----------|-----------|-----------|-----1-----|-----------|-----8-----|-----------|-----------|-
C|-----------|-----------|-----------|-------0---|---2-------|-----------|-----------|-----------|-
G|-----------|-0---------|---3-------|-3---------|-----------|-----------|-0---------|-----------|-

Stave 2:

A|-----------|-----------|-1-0-------|---0-------|-1-1-1-----|-3-0-------|-1-1-0-----|-----------|-
E|-----0-1---|-1-----1---|-------1---|-------1---|-----------|-----1-1---|---------1-|-----------|-
C|---2-------|---0-------|-----------|-----------|---------2-|---------2-|-----------|-------2---|-
G|---------0-|-----------|-----0-----|-----------|-----------|-----------|-------0---|-0---------|-

Stave 3:

A|-----------|-----------|-----------|-----------|---------3-|-0---------|-----0-----|-1---0-----|-
E|---0-1---1-|-1-------1-|-1-1-1---1-|-----------|---0-1-----|---1-1-----|-----------|-----------|-
C|-2---------|---0-------|-----------|-------0-2-|-2-----0---|-------2---|-2---------|-----------|-
G|-------0---|-----------|-------0---|-----------|-----------|-----------|-----------|-----------|-

Stave 4:

A|-----------|-----------|-----------|-----------|-3---0-----|-----3-0---|-0---------|-----------|-
E|-----1-----|-----------|-----------|-----------|-----------|-----------|-----1-----|-----------|-
C|-----------|-----------|-----------|-----------|-----------|-----------|-------2---|-----------|-
G|-0---------|---0-------|---0-------|---0-------|-------0---|-----------|-----------|-----------|-

Stave 5:

A|-------0---|-1---0-----|-----------|-----------|-----------|-3---0-----|-----------|-1---0-----|-
E|-----1-----|-----------|-----------|-----1-1---|-----------|-----------|-1-1-------|-----------|-
C|---0-------|-----------|-------0---|-2---------|-------0---|-----------|-----2---2-|-----------|-
G|-----------|-----------|-0---------|-----------|-----------|-----------|-----------|-----------|-

Stave 6:

A|-----0-----|-----------|-----------|-----------|-----------|-----------|-----------|---------3-|-
E|-----------|-----------|-----------|---0-1-----|-1---------|---0-1---1-|-1---------|---0-1-----|-
C|-----------|-----------|---------0-|-2---------|---0-----0-|-2---------|---------0-|-2-----0---|-
G|-0-----0---|---0-------|---0-------|---------0-|-----------|-------0---|-----------|-----------|-

Stave 7:

A|-3---------|---1-0-----|-----------|-----------|-----------|-----------|-----------|---------3-|-
E|-----1-----|---------1-|-----------|---1-1---1-|-1---------|---1-1---1-|-1---------|---1-1-----|-
C|---0---0-0-|-2---------|---------0-|-2---------|---0-----0-|-2---------|-----------|-2-----0---|-
G|-----------|-------0---|---0-------|-------0---|-----------|-------0---|-----------|-----------|-

Stave 8:

A|-3-0-------|---1-0-----|-----------|-----------|-3---0-----|-----3-0---|-0---------|-----------|-
E|-----1-----|---------1-|-----------|-----------|-----------|-----------|-----1-----|-----------|-
C|-------2---|-2---------|-----------|-----------|-----------|-----------|-------2---|---2-------|-
G|-----------|-------0---|---0-------|---0-------|-------0---|-0---------|-----------|-----------|-

Stave 9:

A|-------0---|-1---0-----|-----------|-----------|-----------|-----------|-3---0-----|-----------|-
E|-----1-----|-----------|-----------|-----------|-----1-1---|-1---------|-----------|-1-1-------|-
C|---0-------|-----------|-----------|-------0---|-2---------|-------0---|-----------|-----2---2-|-
G|-----------|-----------|---0-------|-0---------|-----------|-----------|-----------|-----------|-

Stave 10:

A|-1---0-----|-----0-----|-----------|-----------|-5-----0---|-0---5-----|-----------|-----------|-
E|-----------|-----------|-----------|-----------|-----------|-----------|-------0---|---0-------|-
C|-----------|-----------|-----------|-----------|-----------|-----------|-----------|-----------|-
G|-----------|-0-----0---|---0-------|---0-------|-----4-----|-------4---|-4---0-----|-----------|-

Stave 11:

A|-----------|-3---5-----|-----------|-----------|-----------|-----------|-5---------|-----------|-
E|-----------|-----------|---5-------|-5---------|-0---------|-----------|-----------|-----0---0-|-
C|---2-2-----|-----------|-----------|-------2---|-----------|-------2---|-----------|-----------|-
G|-------0---|-----------|-----------|-----------|-----0-0---|-0---------|-----4-----|-0-0-------|-

Stave 12:

A|-3---2-----|-----2-----|-----------|-----------|-5-----0---|-0---5-----|-----------|-----------|-
E|-----------|-----------|-----------|-----------|-----------|-----------|-------0---|---0-------|-
C|-----------|-----------|-----------|-------2---|-----------|-----------|-----------|-----------|-
G|-----------|-2-----2---|---2-------|-----------|-----4-----|-------4---|-4---0-----|-----------|-

Stave 13:

A|-----------|-3-----2---|-----------|-----------|-----------|-----------|-5---------|-------2---|-
E|-----------|-----------|-----------|-----------|-----0-----|-----------|-----------|-----0-----|-
C|-----2-----|-----------|-----------|-----------|---0-------|-------2---|-----------|-----------|-
G|-------0---|-----------|---2-------|---2-------|-------0---|-0---------|-----4-----|-0-0-------|-

Stave 14:

A|-3---2-----|-----------|-----------|-----------|-
E|-----------|-----------|-----------|-----------|-
C|-----------|-----------|-----------|-----------|-
G|-----------|-2---0-----|---0-------|---0-------|-

							http://www.guitartabcreator.com
Chords

Instruments
{"strings":[[["_","_",0,"_","_","|","_","_",3,"_","_","|","_","_","_","_","_","|","_",0,"_","_","_","|","_","_","_","_","_","|",3,8,"_",0,"_","|","_","_",0,"_","_","|","_",3,"_","_","_","|"],["_","_","_","_","_","|","_","_","_","_","_","|","_","_","_","_","_","|","_","_",1,"_","_","|","_","_","_","_","_","|","_","_",8,"_","_","|","_","_","_","_","_","|","_","_","_","_","_","|"],["_","_","_","_","_","|","_","_","_","_","_","|","_","_","_","_","_","|","_","_","_",0,"_","|","_",2,"_","_","_","|","_","_","_","_","_","|","_","_","_","_","_","|","_","_","_","_","_","|"],["_","_","_","_","_","|",0,"_","_","_","_","|","_",3,"_","_","_","|",3,"_","_","_","_","|","_","_","_","_","_","|","_","_","_","_","_","|",0,"_","_","_","_","|","_","_","_","_","_","|"]],[["_","_","_","_","_","|","_","_","_","_","_","|",1,0,"_","_","_","|","_",0,"_","_","_","|",1,1,1,"_","_","|",3,0,"_","_","_","|",1,1,0,"_","_","|","_","_","_","_","_","|"],["_","_",0,1,"_","|",1,"_","_",1,"_","|","_","_","_",1,"_","|","_","_","_",1,"_","|","_","_","_","_","_","|","_","_",1,1,"_","|","_","_","_","_",1,"|","_","_","_","_","_","|"],["_",2,"_","_","_","|","_",0,"_","_","_","|","_","_","_","_","_","|","_","_","_","_","_","|","_","_","_","_",2,"|","_","_","_","_",2,"|","_","_","_","_","_","|","_","_","_",2,"_","|"],["_","_","_","_",0,"|","_","_","_","_","_","|","_","_",0,"_","_","|","_","_","_","_","_","|","_","_","_","_","_","|","_","_","_","_","_","|","_","_","_",0,"_","|",0,"_","_","_","_","|"]],[["_","_","_","_","_","|","_","_","_","_","_","|","_","_","_","_","_","|","_","_","_","_","_","|","_","_","_","_",3,"|",0,"_","_","_","_","|","_","_",0,"_","_","|",1,"_",0,"_","_","|"],["_",0,1,"_",1,"|",1,"_","_","_",1,"|",1,1,1,"_",1,"|","_","_","_","_","_","|","_",0,1,"_","_","|","_",1,1,"_","_","|","_","_","_","_","_","|","_","_","_","_","_","|"],[2,"_","_","_","_","|","_",0,"_","_","_","|","_","_","_","_","_","|","_","_","_",0,2,"|",2,"_","_",0,"_","|","_","_","_",2,"_","|",2,"_","_","_","_","|","_","_","_","_","_","|"],["_","_","_",0,"_","|","_","_","_","_","_","|","_","_","_",0,"_","|","_","_","_","_","_","|","_","_","_","_","_","|","_","_","_","_","_","|","_","_","_","_","_","|","_","_","_","_","_","|"]],[["_","_","_","_","_","|","_","_","_","_","_","|","_","_","_","_","_","|","_","_","_","_","_","|",3,"_",0,"_","_","|","_","_",3,0,"_","|",0,"_","_","_","_","|","_","_","_","_","_","|"],["_","_",1,"_","_","|","_","_","_","_","_","|","_","_","_","_","_","|","_","_","_","_","_","|","_","_","_","_","_","|","_","_","_","_","_","|","_","_",1,"_","_","|","_","_","_","_","_","|"],["_","_","_","_","_","|","_","_","_","_","_","|","_","_","_","_","_","|","_","_","_","_","_","|","_","_","_","_","_","|","_","_","_","_","_","|","_","_","_",2,"_","|","_","_","_","_","_","|"],[0,"_","_","_","_","|","_",0,"_","_","_","|","_",0,"_","_","_","|","_",0,"_","_","_","|","_","_","_",0,"_","|","_","_","_","_","_","|","_","_","_","_","_","|","_","_","_","_","_","|"]],[["_","_","_",0,"_","|",1,"_",0,"_","_","|","_","_","_","_","_","|","_","_","_","_","_","|","_","_","_","_","_","|",3,"_",0,"_","_","|","_","_","_","_","_","|",1,"_",0,"_","_","|"],["_","_",1,"_","_","|","_","_","_","_","_","|","_","_","_","_","_","|","_","_",1,1,"_","|","_","_","_","_","_","|","_","_","_","_","_","|",1,1,"_","_","_","|","_","_","_","_","_","|"],["_",0,"_","_","_","|","_","_","_","_","_","|","_","_","_",0,"_","|",2,"_","_","_","_","|","_","_","_",0,"_","|","_","_","_","_","_","|","_","_",2,"_",2,"|","_","_","_","_","_","|"],["_","_","_","_","_","|","_","_","_","_","_","|",0,"_","_","_","_","|","_","_","_","_","_","|","_","_","_","_","_","|","_","_","_","_","_","|","_","_","_","_","_","|","_","_","_","_","_","|"]],[["_","_",0,"_","_","|","_","_","_","_","_","|","_","_","_","_","_","|","_","_","_","_","_","|","_","_","_","_","_","|","_","_","_","_","_","|","_","_","_","_","_","|","_","_","_","_",3,"|"],["_","_","_","_","_","|","_","_","_","_","_","|","_","_","_","_","_","|","_",0,1,"_","_","|",1,"_","_","_","_","|","_",0,1,"_",1,"|",1,"_","_","_","_","|","_",0,1,"_","_","|"],["_","_","_","_","_","|","_","_","_","_","_","|","_","_","_","_",0,"|",2,"_","_","_","_","|","_",0,"_","_",0,"|",2,"_","_","_","_","|","_","_","_","_",0,"|",2,"_","_",0,"_","|"],[0,"_","_",0,"_","|","_",0,"_","_","_","|","_",0,"_","_","_","|","_","_","_","_",0,"|","_","_","_","_","_","|","_","_","_",0,"_","|","_","_","_","_","_","|","_","_","_","_","_","|"]],[[3,"_","_","_","_","|","_",1,0,"_","_","|","_","_","_","_","_","|","_","_","_","_","_","|","_","_","_","_","_","|","_","_","_","_","_","|","_","_","_","_","_","|","_","_","_","_",3,"|"],["_","_",1,"_","_","|","_","_","_","_",1,"|","_","_","_","_","_","|","_",1,1,"_",1,"|",1,"_","_","_","_","|","_",1,1,"_",1,"|",1,"_","_","_","_","|","_",1,1,"_","_","|"],["_",0,"_",0,0,"|",2,"_","_","_","_","|","_","_","_","_",0,"|",2,"_","_","_","_","|","_",0,"_","_",0,"|",2,"_","_","_","_","|","_","_","_","_","_","|",2,"_","_",0,"_","|"],["_","_","_","_","_","|","_","_","_",0,"_","|","_",0,"_","_","_","|","_","_","_",0,"_","|","_","_","_","_","_","|","_","_","_",0,"_","|","_","_","_","_","_","|","_","_","_","_","_","|"]],[[3,0,"_","_","_","|","_",1,0,"_","_","|","_","_","_","_","_","|","_","_","_","_","_","|",3,"_",0,"_","_","|","_","_",3,0,"_","|",0,"_","_","_","_","|","_","_","_","_","_","|"],["_","_",1,"_","_","|","_","_","_","_",1,"|","_","_","_","_","_","|","_","_","_","_","_","|","_","_","_","_","_","|","_","_","_","_","_","|","_","_",1,"_","_","|","_","_","_","_","_","|"],["_","_","_",2,"_","|",2,"_","_","_","_","|","_","_","_","_","_","|","_","_","_","_","_","|","_","_","_","_","_","|","_","_","_","_","_","|","_","_","_",2,"_","|","_",2,"_","_","_","|"],["_","_","_","_","_","|","_","_","_",0,"_","|","_",0,"_","_","_","|","_",0,"_","_","_","|","_","_","_",0,"_","|",0,"_","_","_","_","|","_","_","_","_","_","|","_","_","_","_","_","|"]],[["_","_","_",0,"_","|",1,"_",0,"_","_","|","_","_","_","_","_","|","_","_","_","_","_","|","_","_","_","_","_","|","_","_","_","_","_","|",3,"_",0,"_","_","|","_","_","_","_","_","|"],["_","_",1,"_","_","|","_","_","_","_","_","|","_","_","_","_","_","|","_","_","_","_","_","|","_","_",1,1,"_","|",1,"_","_","_","_","|","_","_","_","_","_","|",1,1,"_","_","_","|"],["_",0,"_","_","_","|","_","_","_","_","_","|","_","_","_","_","_","|","_","_","_",0,"_","|",2,"_","_","_","_","|","_","_","_",0,"_","|","_","_","_","_","_","|","_","_",2,"_",2,"|"],["_","_","_","_","_","|","_","_","_","_","_","|","_",0,"_","_","_","|",0,"_","_","_","_","|","_","_","_","_","_","|","_","_","_","_","_","|","_","_","_","_","_","|","_","_","_","_","_","|"]],[[1,"_",0,"_","_","|","_","_",0,"_","_","|","_","_","_","_","_","|","_","_","_","_","_","|",5,"_","_",0,"_","|",0,"_",5,"_","_","|","_","_","_","_","_","|","_","_","_","_","_","|"],["_","_","_","_","_","|","_","_","_","_","_","|","_","_","_","_","_","|","_","_","_","_","_","|","_","_","_","_","_","|","_","_","_","_","_","|","_","_","_",0,"_","|","_",0,"_","_","_","|"],["_","_","_","_","_","|","_","_","_","_","_","|","_","_","_","_","_","|","_","_","_","_","_","|","_","_","_","_","_","|","_","_","_","_","_","|","_","_","_","_","_","|","_","_","_","_","_","|"],["_","_","_","_","_","|",0,"_","_",0,"_","|","_",0,"_","_","_","|","_",0,"_","_","_","|","_","_",4,"_","_","|","_","_","_",4,"_","|",4,"_",0,"_","_","|","_","_","_","_","_","|"]],[["_","_","_","_","_","|",3,"_",5,"_","_","|","_","_","_","_","_","|","_","_","_","_","_","|","_","_","_","_","_","|","_","_","_","_","_","|",5,"_","_","_","_","|","_","_","_","_","_","|"],["_","_","_","_","_","|","_","_","_","_","_","|","_",5,"_","_","_","|",5,"_","_","_","_","|",0,"_","_","_","_","|","_","_","_","_","_","|","_","_","_","_","_","|","_","_",0,"_",0,"|"],["_",2,2,"_","_","|","_","_","_","_","_","|","_","_","_","_","_","|","_","_","_",2,"_","|","_","_","_","_","_","|","_","_","_",2,"_","|","_","_","_","_","_","|","_","_","_","_","_","|"],["_","_","_",0,"_","|","_","_","_","_","_","|","_","_","_","_","_","|","_","_","_","_","_","|","_","_",0,0,"_","|",0,"_","_","_","_","|","_","_",4,"_","_","|",0,0,"_","_","_","|"]],[[3,"_",2,"_","_","|","_","_",2,"_","_","|","_","_","_","_","_","|","_","_","_","_","_","|",5,"_","_",0,"_","|",0,"_",5,"_","_","|","_","_","_","_","_","|","_","_","_","_","_","|"],["_","_","_","_","_","|","_","_","_","_","_","|","_","_","_","_","_","|","_","_","_","_","_","|","_","_","_","_","_","|","_","_","_","_","_","|","_","_","_",0,"_","|","_",0,"_","_","_","|"],["_","_","_","_","_","|","_","_","_","_","_","|","_","_","_","_","_","|","_","_","_",2,"_","|","_","_","_","_","_","|","_","_","_","_","_","|","_","_","_","_","_","|","_","_","_","_","_","|"],["_","_","_","_","_","|",2,"_","_",2,"_","|","_",2,"_","_","_","|","_","_","_","_","_","|","_","_",4,"_","_","|","_","_","_",4,"_","|",4,"_",0,"_","_","|","_","_","_","_","_","|"]],[["_","_","_","_","_","|",3,"_","_",2,"_","|","_","_","_","_","_","|","_","_","_","_","_","|","_","_","_","_","_","|","_","_","_","_","_","|",5,"_","_","_","_","|","_","_","_",2,"_","|"],["_","_","_","_","_","|","_","_","_","_","_","|","_","_","_","_","_","|","_","_","_","_","_","|","_","_",0,"_","_","|","_","_","_","_","_","|","_","_","_","_","_","|","_","_",0,"_","_","|"],["_","_",2,"_","_","|","_","_","_","_","_","|","_","_","_","_","_","|","_","_","_","_","_","|","_",0,"_","_","_","|","_","_","_",2,"_","|","_","_","_","_","_","|","_","_","_","_","_","|"],["_","_","_",0,"_","|","_","_","_","_","_","|","_",2,"_","_","_","|","_",2,"_","_","_","|","_","_","_",0,"_","|",0,"_","_","_","_","|","_","_",4,"_","_","|",0,0,"_","_","_","|"]],[[3,"_",2,"_","_","|","_","_","_","_","_","|","_","_","_","_","_","|","_","_","_","_","_","|"],["_","_","_","_","_","|","_","_","_","_","_","|","_","_","_","_","_","|","_","_","_","_","_","|"],["_","_","_","_","_","|","_","_","_","_","_","|","_","_","_","_","_","|","_","_","_","_","_","|"],["_","_","_","_","_","|",2,"_",0,"_","_","|","_",0,"_","_","_","|","_",0,"_","_","_","|"]]],"numberofstrings":4,"notes":["A","E","C","G"],"capo":0,"stringnotes":["A4","E4","C1","G3"],"comments":["Stave 1:","Stave 2:","Stave 3:","Stave 4:","Stave 5:","Stave 6:","Stave 7:","Stave 8:","Stave 9:","Stave 10:","Stave 11:","Stave 12:","Stave 13:","Stave 14:"],"timing":[[null,null,null,null,null,null,null,null,null,null,null,null,null,null,null,null,null,null,null,null,null,null,null,null,null,null,null,null,null,null,null,null,null,null,null,null,null,null,null,null,null,null,null,null,null,null,null,null,null,null,null,null,null,null,null,null,null,null,null,null,null,null,null,null,null,null,null,null,null,null,null,null,null,null,null,null,null,null,null,null,null,null,null,null,null,null,null,null],[null,null,null,null,null,null,null,null,null,null,null,null,null,null,null,null,null,null,null,null,null,null,null,null,null,null,null,null,null,null,null,null,null,null,null,null,null,null,null,null,null,null,null,null,null,null,null,null,null],[null,null,null,null,null,null,null,null,null,null,null,null,null,null,null,null,null,null,null,null,null,null,null,null,null,null,null,null,null,null,null,null,null,null,null,null,null,null,null,null,null,null,null,null,null,null,null,null,null],[null,null,null,null,null,null,null,null,null,null,null,null,null,null,null,null,null,null,null,null,null,null,null,null,null,null,null,null,null,null,null,null,null,null,null,null,null,null,null,null,null,null,null,null,null,null,null,null,null],[null,null,null,null,null,null,null,null,null,null,null,null,null,null,null,null,null,null,null,null,null,null,null,null,null,null,null,null,null,null,null,null,null,null,null,null,null,null,null,null,null,null,null,null,null,null,null,null,null],[null,null,null,null,null,null,null,null,null,null,null,null,null,null,null,null,null,null,null,null,null,null,null,null,null,null,null,null,null,null,null,null,null,null,null,null,null,null,null,null,null,null,null,null,null,null,null,null,null],[null,null,null,null,null,null,null,null,null,null,null,null,null,null,null,null,null,null,null,null,null,null,null,null,null,null,null,null,null,null,null,null,null,null,null,null,null,null,null,null,null,null,null,null,null,null,null,null,null],[null,null,null,null,null,null,null,null,null,null,null,null,null,null,null,null,null,null,null,null,null,null,null,null,null,null,null,null,null,null,null,null,null,null,null,null,null,null,null,null,null,null,null,null,null,null,null,null,null],[null,null,null,null,null,null,null,null,null,null,null,null,null,null,null,null,null,null,null,null,null,null,null,null,null,null,null,null,null,null,null,null,null,null,null,null,null,null,null,null,null,null,null,null,null,null,null,null,null],[null,null,null,null,null,null,null,null,null,null,null,null,null,null,null,null,null,null,null,null,null,null,null,null,null,null,null,null,null,null,null,null,null,null,null,null,null,null,null,null,null,null,null,null,null,null,null,null,null],[null,null,null,null,null,null,null,null,null,null,null,null,null,null,null,null,null,null,null,null,null,null,null,null,null,null,null,null,null,null,null,null,null,null,null,null,null,null,null,null,null,null,null,null,null,null,null,null,null],[null,null,null,null,null,null,null,null,null,null,null,null,null,null,null,null,null,null,null,null,null,null,null,null,null,null,null,null,null,null,null,null,null,null,null,null,null,null,null,null,null,null,null,null,null,null,null,null,null],[null,null,null,null,null,null,null,null,null,null,null,null,null,null,null,null,null,null,null,null,null,null,null,null,null,null,null,null,null,null,null,null,null,null,null,null,null,null,null,null,null,null,null,null,null,null,null,null,null],[null,null,null,null,null,null,null,null,null,null,null,null,null,null,null,null,null,null,null,null,null,null,null,null,null,null,null,null,null,null,null,null,null,null,null,null,null,null,null,null,null,null,null,null,null,null,null,null,null]],"timingvisible":false,"tabcounter":24,"stave":13,"totalstaves":14,"instrument":"ukulele","selectedtuning":"ukulele","version":"13"}
Submitted by Mayie on Mon, 2022-06-06 07:32