Sound will begin in 5 seconds

Monarchs

01234567891011121314151617181920212223
E
B
G
D
A
E
B
0 1 2 3 4 5 6 7 8 9 10 11 12 13 14 15 16 17 18 19 20 21 22 23
Song Science #1: How Pros Use 6 Chords to Write Hit Songs
(/) Slide Up  (\) Slide Down  (h) Hammer On  (p) Pull Off  (b) Bend (r) Release (v) Vibrato

Stave 1:

Gb|--------------------------------------|-----
Db|-----------------2--------------3--2--|-----
Ab|--------------3--------------3--------|-----
Eb|--1-----0--1-----------0--1-----------|--1--

Stave 2:

Gb|---------------------------
Db|-------------------3p2-----
Ab|--0h3-----------0-------3--
Eb|---------------------------

Stave 3:

Gb|-------------------|-------------------
Db|-------------------|-------------------
Ab|-------3-----------|-------------------
Eb|--3h5-----------3--|--5-----5\3-----1--

Stave 4:

Gb|--------------------------------------------------|--------------------------------------------------
Db|--------------------------------------------------|--------------------------------------------------
Ab|--------------------------------------------------|--------------------------------------------------
Eb|--3--3--3--3--3--3--3--3--5--5--5--5--5--5--5--5--|--0--0--0--1-----1--1--1--0--0--0--1-----1--1--1--

Stave 5:

Gb|--------------------------------------------------|--------------------------|-----------------
Db|--------------------------------------------------|--------------------------|-----------------
Ab|--------------------------------------------------|--------------------------|--12--12--12--8--
Eb|--3--3--3--3--3--3--3--3--5--5--5--5--5--5--5--5--|--0--0--0--1-----1--1--1--|-----------------

Stave 6:

Gb|--------------------|--------------------|--------------------|--------------
Db|--------------------|--------------------|--------------------|--------------
Ab|--8--8--8--8--8-----|--8--8--8--8--8-----|--8--8--8--8--8-----|--10--10--10--
Eb|--------------------|--------------------|--------------------|--------------

Stave 7:

Gb|-----------------|-----------------|-----------------|-----------------
Db|-----------------|-----------------|-----------------|-----------------
Ab|-----------------|-----------------|--3-----3--3--3--|--3-----3--3--3--
Eb|--5-----5--5--5--|--3-----3--3--3--|-----------------|-----------------

Stave 8:

Gb|-----------------|-----------------|-----------------|-----------------|-----------------|-----------------
Db|-----------------|-----------------|-----------------|-----------------|-----------------|-----------------
Ab|-----------------|-----------------|--3-----3--3--3--|-----------------|-----------------|-----------------
Eb|--5-----5--5--5--|--1-----1--1--1--|-----------------|--3-----3--3--3--|--5-----5--5--5--|--3-----3--3--3--

Stave 9:

Gb|-----------------------|-----------------------|-----------------------|-----------------------
Db|-----------------------|-----------------------|-----------------------|-----------------------
Ab|-----------------------|-----------------------|--3--3--3--3--3-----3--|--3--3--3--3--3-----3--
Eb|--1--1--1--1--1-----1--|--1--1--1--1--1-----1--|-----------------------|-----------------------

http://www.guitartabcreator.com
Guitar Tab Creator is intended to store guitar tab created through the tool. It currently does not support in-line text editing. Any text you place in here will be lost. If you need to comment on your tab, please use the "Tab Notes" section located below.