Sound will begin in 5 seconds

Jesus Said It

01234567891011121314151617181920212223
E
B
G
D
A
E
B
0 1 2 3 4 5 6 7 8 9 10 11 12 13 14 15 16 17 18 19 20 21 22 23
Song Science #1: How Pros Use 6 Chords to Write Hit Songs
(/) Slide Up  (\) Slide Down  (h) Hammer On  (p) Pull Off  (b) Bend (r) Release (v) Vibrato

Stave 1:

G|-----------------------------------------
D|-----------------------------------------
A|--6-----6--4-----6-----6--4--4--3--2--1--
E|-----6--------------6--------------------

Stave 2:

G|-----
D|-----
A|--6--
E|-----

Stave 3:

G|--------------
D|--4--5--6-----
A|-----------6--
E|--------------

Stave 4:

G|-----------
D|-----------
A|-----------
E|--1--2--3--

Stave 5:

G|-----------
D|-----------
A|-----3--6--
E|--4--------

Stave 6:

G|-----------
D|-----------
A|-----------
E|--4--3--2--

Stave 7:

G|-----
D|-----
A|--6--
E|-----

Stave 8:

G|--------------
D|--------------
A|--------------
E|--3--4--5--6--

Stave 9:

G|-----------------------------------------
D|-----------------------------------------
A|--6-----6--4-----6-----6--4--4--3--2--1--
E|-----6--------------6--------------------

Stave 10:

G|-----------------
D|-----------------
A|--7--4--3--2--1--
E|-----------------

Stave 11:

G|---------------------------
D|---------------5--6--7-----
A|--\7-----7--------------7--
E|---------------------------

Stave 12:

G|-----------------
D|-----------------
A|--7--------------
E|--------3--4--5--

Stave 13:

G|-----------
D|-----------
A|-----4--7--
E|--5--------

Stave 14:

G|-----------
D|-----------
A|--5--4--3--
E|-----------

Stave 15:

G|-----------------------------------------
D|-----------------------------------------
A|--7-----7--5-----7-----7--5--5--4--3--2--
E|-----7--------------7--------------------

http://www.guitartabcreator.com
Guitar Tab Creator is intended to store guitar tab created through the tool. It currently does not support in-line text editing. Any text you place in here will be lost. If you need to comment on your tab, please use the "Tab Notes" section located below.