Sound will begin in 5 seconds

Numb Guitar 1

Chords
01234567891011121314151617181920212223
E
B
G
D
A
E
B
0 1 2 3 4 5 6 7 8 9 10 11 12 13 14 15 16 17 18 19 20 21 22 23
Song Science #1: How Pros Use 6 Chords to Write Hit Songs
(/) Slide Up  (\) Slide Down  (h) Hammer On  (p) Pull Off  (b) Bend (r) Release (v) Vibrato

Stave 1:

E|------12------14--17--16---------12------17--16------
B|--14------14-----------------14------14----------17--
G|-----------------------------------------------------
D|-----------------------------------------------------
A|-----------------------------------------------------
D|-----------------------------------------------------

Stave 2:

E|---------------
B|--7--3--10--5--
G|--6--2--9---4--
D|--4--0--7---2--
A|---------------
D|---------------

Stave 3:

E|----------------------------------
B|--3--5--7--9--10--14--15--17--14--
G|--2--4--6--8--9---13--14--16--13--
D|--0--2--4--6--7---11--12--14--11--
A|----------------------------------
D|----------------------------------

http://www.guitartabcreator.com
Guitar Tab Creator is intended to store guitar tab created through the tool. It currently does not support in-line text editing. Any text you place in here will be lost. If you need to comment on your tab, please use the "Tab Notes" section located below.