Murmerations

01234567891011121314151617181920212223
E
B
G
D
A
E
B
0 1 2 3 4 5 6 7 8 9 10 11 12 13 14 15 16 17 18 19 20 21 22 23
(/) Slide Up  (\) Slide Down  (h) Hammer On  (p) Pull Off  (b) Bend (r) Release (v) Vibrato

Stave 1:

D|-----------|-------------------:|--
A|--9--5--2--|--9--7--9--7/9-10--:|--
G|-----------|-------------------:|--
D|-----------|-------------------:|--
A|-----------|-------------------:|--
D|--9--5--2--|--9--7--9--7-9/10--:|--

Stave 2:

D|-------------------:|--------------|--------------|-----------------------------------------------
A|-------------------:|--------------|--------------|-----------------------------------------------
G|-------------------:|-----4--------|--4--4--2--0--|-----------------------------------------------
D|--9--7--9--7/9-10--:|-----------2--|--5--5--0--2--|-----------------9-----9-----7--------7--------
A|--9--7--9--7-9-10--:|-----------3--|--5--5--0--3--|-----9-----9-----------------------7--------7--
D|--9--7--9--7-9/10--:|--5-----0-----|--5--5--0-----|--9-----9-----9-----9-----9-----7--------7-----

							http://www.guitartabcreator.com
Chords

Instruments
{"strings":[[[".",".",".","|",".",".",".",".",".",".",".",".",":|"],[9,5,2,"|",9,7,9,7,"/",9,".",10,":|"],[".",".",".","|",".",".",".",".",".",".",".",".",":|"],[".",".",".","|",".",".",".",".",".",".",".",".",":|"],[".",".",".","|",".",".",".",".",".",".",".",".",":|"],[9,5,2,"|",9,7,9,7,".",9,"/",10,":|"]],[[".",".",".",".",".",".",".",".",":|",".",".",".",".","|",".",".",".",".","|",".",".",".",".",".",".",".",".",".",".",".",".",".",".","."],[".",".",".",".",".",".",".",".",":|",".",".",".",".","|",".",".",".",".","|",".",".",".",".",".",".",".",".",".",".",".",".",".",".","."],[".",".",".",".",".",".",".",".",":|",".",4,".",".","|",4,4,2,0,"|",".",".",".",".",".",".",".",".",".",".",".",".",".",".","."],[9,7,9,7,"/",9,".",10,":|",".",".",".",2,"|",5,5,0,2,"|",".",".",".",".",".",9,".",9,".",7,".",".",7,".","."],[9,7,9,7,".",9,".",10,":|",".",".",".",3,"|",5,5,0,3,"|",".",9,".",9,".",".",".",".",".",".",".",7,".",".",7],[9,7,9,7,".",9,"/",10,":|",5,".",0,".","|",5,5,0,".","|",9,".",9,".",9,".",9,".",9,".",7,".",".",7,"."]]],"numberofstrings":6,"notes":["D","A","G","D","A","D","B"],"capo":0,"stringnotes":["D1","A1","G3","D3","A2","D1"],"comments":["Stave 1:","Stave 2:"],"timing":[["W","W","W",null,"W","W","W","W",null,"W",null,"W"],["W","W","W","W",null,"W",null,"W",null,"W","W","W","W","W","W","W","W","W",null,"W","W","W","W","W","W","W","W","W","W","W","W","W","W","W"]],"timingvisible":false,"tabcounter":34,"stave":1,"totalstaves":2,"instrument":"6guitar","selectedtuning":"6_standard","version":"13"}

Member for

1 month 2 weeks
Submitted by maxbailey on Fri, 2021-02-19 14:52