Twinkle, Twinkle Little Star

Chords

01234567891011121314151617181920212223
E
B
G
D
A
E
B
0 1 2 3 4 5 6 7 8 9 10 11 12 13 14 15 16 17 18 19 20 21 22 23
(/) Slide Up  (\) Slide Down  (h) Hammer On  (p) Pull Off  (b) Bend (r) Release (v) Vibrato

Stave 1:

E|--3--3--3--3--|--0--0--3--3--|--0--0--3--3--|--2--2--3--3--|--3--3--0--0--|--3--3--2--2--|--
B|--0--0--0--0--|--1--1--0--0--|--1--1--0--0--|--1--1--0--0--|--0--0--1--1--|--0--0--1--1--|--
G|--0--0--0--0--|--0--0--0--0--|--0--0--0--0--|--2--2--0--0--|--0--0--0--0--|--0--0--2--2--|--
D|--------------|--------------|--------------|--0--0--------|--------------|--------0--0--|--
A|--------------|--------------|--------------|--------------|--------------|--------------|--
E|--------------|--------------|--------------|--------------|--------------|--------------|--

Stave 2:

E|--3--3--0--0--|--3--3--2--2--|--3--3--3--3--|--0--0--3--3--|--0--0--3--3--|--2--2--3--3--|--
B|--0--0--1--1--|--0--0--1--1--|--0--0--0--0--|--1--1--0--0--|--1--1--0--0--|--1--1--0--0--|--
G|--0--0--0--0--|--0--0--2--2--|--0--0--0--0--|--0--0--0--0--|--0--0--0--0--|--2--2--0--0--|--
D|--------------|--------0--0--|--------------|--------------|--------------|--0--0--------|--
A|--------------|--------------|--------------|--------------|--------------|--------------|--
E|--------------|--------------|--------------|--------------|--------------|--------------|--

							http://www.guitartabcreator.com
Tab Notes

Twinkle, Twinkle little star, how I wonder where you are

Up above the world so high, like a diamond in the sky,

Twinkle, twinkle little star, how I wonder where you are.

genre
Instruments
{"title":"","strings":[[[3,3,3,3,"|",0,0,3,3,"|",0,0,3,3,"|",2,2,3,3,"|",3,3,0,0,"|",3,3,2,2,"|"],[0,0,0,0,"|",1,1,0,0,"|",1,1,0,0,"|",1,1,0,0,"|",0,0,1,1,"|",0,0,1,1,"|"],[0,0,0,0,"|",0,0,0,0,"|",0,0,0,0,"|",2,2,0,0,"|",0,0,0,0,"|",0,0,2,2,"|"],[".",".",".",".","|",".",".",".",".","|",".",".",".",".","|",0,0,".",".","|",".",".",".",".","|",".",".",0,0,"|"],[".",".",".",".","|",".",".",".",".","|",".",".",".",".","|",".",".",".",".","|",".",".",".",".","|",".",".",".",".","|"],[".",".",".",".","|",".",".",".",".","|",".",".",".",".","|",".",".",".",".","|",".",".",".",".","|",".",".",".",".","|"]],[[3,3,0,0,"|",3,3,2,2,"|",3,3,3,3,"|",0,0,3,3,"|",0,0,3,3,"|",2,2,3,3,"|"],[0,0,1,1,"|",0,0,1,1,"|",0,0,0,0,"|",1,1,0,0,"|",1,1,0,0,"|",1,1,0,0,"|"],[0,0,0,0,"|",0,0,2,2,"|",0,0,0,0,"|",0,0,0,0,"|",0,0,0,0,"|",2,2,0,0,"|"],[".",".",".",".","|",".",".",0,0,"|",".",".",".",".","|",".",".",".",".","|",".",".",".",".","|",0,0,".",".","|"],[".",".",".",".","|",".",".",".",".","|",".",".",".",".","|",".",".",".",".","|",".",".",".",".","|",".",".",".",".","|"],[".",".",".",".","|",".",".",".",".","|",".",".",".",".","|",".",".",".",".","|",".",".",".",".","|",".",".",".",".","|"]]],"numberofstrings":6,"notes":["E","B","G","D","A","E","B"],"capo":0,"stringnotes":["E4","B3","G3","D3","A2","E2"],"comments":["Stave 1:","Stave 2:"],"timing":[["W","W","W","W","W","W","W","W","W",null,"W","W","W","W",null,"W","W","W","W",null,"W","W","W","W",null,"W","W","W","W"],["W","W","W","W",null,"W","W","W","W",null,"W","W","W","W",null,"W","W","W","W",null,"W","W","W","W",null,"W","W","W","W"]],"timingvisible":false,"tabcounter":30,"stave":1,"totalstaves":2,"instrument":"6guitar","selectedtuning":"6_standard","version":"13"}

Member for

1 year 3 months
Submitted by maw396 on Sun, 2019-03-17 14:52