Sound will begin in 5 seconds

Practice Notes A-G

01234567891011121314151617181920212223
E
B
G
D
A
E
B
0 1 2 3 4 5 6 7 8 9 10 11 12 13 14 15 16 17 18 19 20 21 22 23
(/) Slide Up  (\) Slide Down  (h) Hammer On  (p) Pull Off  (b) Bend (r) Release (v) Vibrato

Stave 1:

E|--------|--------|------5--|---------|--------|--
B|--------|--------|--10-----|--10-----|--------|--
G|--------|-----2--|---------|------2--|--------|--
D|--------|--7-----|---------|---------|--7-----|--
A|-----0--|--------|---------|---------|-----0--|--
E|--5-----|--------|---------|---------|--------|--

Stave 2:

E|--------|--------|-----7--|--------|--------|--
B|--------|--------|--0-----|--0-----|--------|--
G|--------|-----4--|--------|-----4--|--------|--
D|--------|--9-----|--------|--------|--9-----|--
A|-----2--|--------|--------|--------|-----2--|--
E|--7-----|--------|--------|--------|--------|--

Stave 3:

E|--------|---------|-----8--|--------|---------|--
B|--------|---------|--1-----|--1-----|---------|--
G|--------|------5--|--------|-----5--|---------|--
D|--------|--10-----|--------|--------|--10-----|--
A|-----3--|---------|--------|--------|------3--|--
E|--8-----|---------|--------|--------|---------|--

Stave 4:

E|---------|--------|-----10--|--------|--------|--
B|---------|--------|--3------|--3-----|--------|--
G|---------|-----7--|---------|-----7--|--------|--
D|---------|--0-----|---------|--------|--0-----|--
A|------5--|--------|---------|--------|-----5--|--
E|--10-----|--------|---------|--------|--------|--

Stave 5:

E|--------|--------|-----0--|--------|--------|--
B|--------|--------|--5-----|--5-----|--------|--
G|--------|-----9--|--------|-----9--|--------|--
D|--------|--2-----|--------|--------|--2-----|--
A|-----7--|--------|--------|--------|-----7--|--
E|--0-----|--------|--------|--------|--------|--

Stave 6:

E|--------|---------|-----1--|---------|--------|--
B|--------|---------|--6-----|--6------|--------|--
G|--------|-----10--|--------|-----10--|--------|--
D|--------|--3------|--------|---------|--3-----|--
A|-----8--|---------|--------|---------|-----8--|--
E|--1-----|---------|--------|---------|--------|--

Stave 7:

E|---------|--------|-----3--|--------|---------|--
B|---------|--------|--8-----|--8-----|---------|--
G|---------|-----0--|--------|-----0--|---------|--
D|---------|--5-----|--------|--------|--5------|--
A|-----10--|--------|--------|--------|-----10--|--
E|--3------|--------|--------|--------|---------|--

http://www.guitartabcreator.com
Guitar Tab Creator is intended to store guitar tab created through the tool. It currently does not support in-line text editing. Any text you place in here will be lost. If you need to comment on your tab, please use the "Tab Notes" section located below.