F7

Chords

01234567891011121314151617181920212223
E
B
G
D
A
E
B
0 1 2 3 4 5 6 7 8 9 10 11 12 13 14 15 16 17 18 19 20 21 22 23
(/) Slide Up  (\) Slide Down  (h) Hammer On  (p) Pull Off  (b) Bend (r) Release (v) Vibrato

Stave 1:

E|--5--|--
B|--4--|--
G|--5--|--
D|--3--|--
A|-----|--
E|-----|--

Stave 2:

E|--------------------------5--------------------------|--
B|--------------------4--6-----6--4--------------------|--
G|--------------2--5-----------------5--2--------------|--
D|-----------3-----------------------------3-----------|--
A|-----3--6-----------------------------------6--3-----|--
E|--5-----------------------------------------------5--|--

Stave 3:

E|-----|--
B|--6--|--
G|--8--|--
D|--7--|--
A|--8--|--
E|-----|--

Stave 4:

E|--------------------------5--8--5--------------------------|--
B|-----------------------6-----------6-----------------------|--
G|-----------------5--8-----------------8--5-----------------|--
D|--------------7-----------------------------7--------------|--
A|--------6--8-----------------------------------8--6--------|--
E|--5--8-----------------------------------------------8--5--|--

Stave 5:

E|--8---|--
B|--10--|--
G|--8---|--
D|--10--|--
A|--8---|--
E|------|--

Stave 6:

E|------------------------------8--11--8------------------------------
B|--------------------------10------------10--------------------------
G|-------------------8--10--------------------10--8-------------------
D|------------7--10----------------------------------10--7------------
A|---------8------------------------------------------------8---------
E|--8--11------------------------------------------------------11--8--

Stave 7:

E|------|--
B|--10--|--
G|--10--|--
D|--13--|--
A|--12--|--
E|--13--|--

Stave 8:

E|------------------------------11--13--11------------------------------|--
B|----------------------10--13--------------13--10----------------------|--
G|------------------10------------------------------10------------------|--
D|----------10--13--------------------------------------13--10----------|--
A|------12------------------------------------------------------12------|--
E|--13--------------------------------------------------------------13--|--

Stave 9:

E|--13--|--
B|--13--|--
G|--14--|--
D|--13--|--
A|--15--|--
E|--13--|--

Stave 10:

E|----------------------------------13----------------------------------|--
B|--------------------------13--16------16--13--------------------------|--
G|----------------------14----------------------14----------------------|--
D|--------------13--15------------------------------15--13--------------|--
A|------12--15----------------------------------------------15--12------|--
E|--13--------------------------------------------------------------13--|--

							http://www.guitartabcreator.com
Instruments
{"strings":[[[5,"|"],[4,"|"],[5,"|"],[3,"|"],[".","|"],[".","|"]],[[".",".",".",".",".",".",".",".",5,".",".",".",".",".",".",".",".","|"],[".",".",".",".",".",".",4,6,".",6,4,".",".",".",".",".",".","|"],[".",".",".",".",2,5,".",".",".",".",".",5,2,".",".",".",".","|"],[".",".",".",3,".",".",".",".",".",".",".",".",".",3,".",".",".","|"],[".",3,6,".",".",".",".",".",".",".",".",".",".",".",6,3,".","|"],[5,".",".",".",".",".",".",".",".",".",".",".",".",".",".",".",5,"|"]],[[".","|"],[6,"|"],[8,"|"],[7,"|"],[8,"|"],[".","|"]],[[".",".",".",".",".",".",".",".",5,8,5,".",".",".",".",".",".",".",".","|"],[".",".",".",".",".",".",".",6,".",".",".",6,".",".",".",".",".",".",".","|"],[".",".",".",".",".",5,8,".",".",".",".",".",8,5,".",".",".",".",".","|"],[".",".",".",".",7,".",".",".",".",".",".",".",".",".",7,".",".",".",".","|"],[".",".",6,8,".",".",".",".",".",".",".",".",".",".",".",8,6,".",".","|"],[5,8,".",".",".",".",".",".",".",".",".",".",".",".",".",".",".",8,5,"|"]],[[8,"|"],[10,"|"],[8,"|"],[10,"|"],[8,"|"],[".","|"]],[[".",".",".",".",".",".",".",".",8,11,8,".",".",".",".",".",".",".","."],[".",".",".",".",".",".",".",10,".",".",".",10,".",".",".",".",".",".","."],[".",".",".",".",".",8,10,".",".",".",".",".",10,8,".",".",".",".","."],[".",".",".",7,10,".",".",".",".",".",".",".",".",".",10,7,".",".","."],[".",".",8,".",".",".",".",".",".",".",".",".",".",".",".",".",8,".","."],[8,11,".",".",".",".",".",".",".",".",".",".",".",".",".",".",".",11,8]],[[".","|"],[10,"|"],[10,"|"],[13,"|"],[12,"|"],[13,"|"]],[[".",".",".",".",".",".",".",11,13,11,".",".",".",".",".",".",".","|"],[".",".",".",".",".",10,13,".",".",".",13,10,".",".",".",".",".","|"],[".",".",".",".",10,".",".",".",".",".",".",".",10,".",".",".",".","|"],[".",".",10,13,".",".",".",".",".",".",".",".",".",13,10,".",".","|"],[".",12,".",".",".",".",".",".",".",".",".",".",".",".",".",12,".","|"],[13,".",".",".",".",".",".",".",".",".",".",".",".",".",".",".",13,"|"]],[[13,"|"],[13,"|"],[14,"|"],[13,"|"],[15,"|"],[13,"|"]],[[".",".",".",".",".",".",".",".",13,".",".",".",".",".",".",".",".","|"],[".",".",".",".",".",".",13,16,".",16,13,".",".",".",".",".",".","|"],[".",".",".",".",".",14,".",".",".",".",".",14,".",".",".",".",".","|"],[".",".",".",13,15,".",".",".",".",".",".",".",15,13,".",".",".","|"],[".",12,15,".",".",".",".",".",".",".",".",".",".",".",15,12,".","|"],[13,".",".",".",".",".",".",".",".",".",".",".",".",".",".",".",13,"|"]]],"numberofstrings":6,"notes":["E","B","G","D","A","E","B"],"capo":0,"stringnotes":["E4","B3","G3","D3","A2","E2"],"comments":["Stave 1:","Stave 2:","Stave 3:","Stave 4:","Stave 5:","Stave 6:","Stave 7:","Stave 8:","Stave 9:","Stave 10:"],"timing":[["W"],["W","W","W","W","W","W","W","W","W","W","W","W","W","W","W","W","W"],["W"],["W","W","W","W","W","W","W","W","W","W","W","W","W","W","W","W","W","W","W"],["W"],["W","W","W","W","W","W","W","W","W","W","W","W","W","W","W","W","W","W","W"],["W"],["W","W","W","W","W","W","W","W","W","W","W","W","W","W","W","W","W"],["W"],["W","W","W","W","W","W","W","W","W","W","W","W","W","W","W","W","W"]],"timingvisible":false,"tabcounter":18,"stave":9,"totalstaves":10,"instrument":"6guitar","selectedtuning":"6_standard","version":"13"}

Member for

2 days 20 hours
Submitted by Mauro Varela on Mon, 2020-09-14 08:47