EbMaj7

Chords

01234567891011121314151617181920212223
E
B
G
D
A
E
B
0 1 2 3 4 5 6 7 8 9 10 11 12 13 14 15 16 17 18 19 20 21 22 23
(/) Slide Up  (\) Slide Down  (h) Hammer On  (p) Pull Off  (b) Bend (r) Release (v) Vibrato

Stave 1:

E|--3--|--
B|--3--|--
G|--3--|--
D|--5--|--
A|--6--|--
E|-----|--

Stave 2:

E|--------------------------3--6--3--------------------------|--
B|--------------------3--4-----------4--3--------------------|--
G|-----------------3-----------------------3-----------------|--
D|--------------5-----------------------------5--------------|--
A|--------5--6-----------------------------------6--5--------|--
E|--3--6-----------------------------------------------6--3--|--

Stave 3:

E|--6--|--
B|--8--|--
G|--7--|--
D|--8--|--
A|--6--|--
E|-----|--

Stave 4:

E|--------------------------6--------------------------|--
B|-----------------------8-----8-----------------------|--
G|-----------------7--8-----------8--7-----------------|--
D|-----------5--8-----------------------8--5-----------|--
A|-----5--6-----------------------------------6--5-----|--
E|--6-----------------------------------------------6--|--

Stave 5:

E|--10--|--
B|--8---|--
G|--8---|--
D|--8---|--
A|------|--
E|--11--|--

Stave 6:

E|--------------------------10--11--10--------------------------|--
B|-------------------8--11--------------11--8-------------------|--
G|-------------7--8----------------------------8--7-------------|--
D|----------8----------------------------------------8----------|--
A|------10----------------------------------------------10------|--
E|--11------------------------------------------------------11--|--

Stave 7:

E|------|--
B|--11--|--
G|--12--|--
D|--12--|--
A|------|--
E|--11--|--

Stave 8:

E|------------------------------10--11--10------------------------------|--
B|--------------------------11--------------11--------------------------|--
G|----------------------12----------------------12----------------------|--
D|--------------12--13------------------------------13--12--------------|--
A|------10--13----------------------------------------------13--10------|--
E|--11--------------------------------------------------------------11--|--

Stave 9:

E|--3--|--
B|--3--|--
G|--3--|--
D|--1--|--
A|-----|--
E|-----|--

Stave 10:

E|----------------------------------15----------------------------------|--
B|--------------------------15--16------16--15--------------------------|--
G|------------------12--15----------------------15--12------------------|--
D|----------12--13--------------------------------------13--12----------|--
A|------13------------------------------------------------------13------|--
E|--15--------------------------------------------------------------15--|--

							http://www.guitartabcreator.com
Instruments
{"strings":[[[3,"|"],[3,"|"],[3,"|"],[5,"|"],[6,"|"],[".","|"]],[[".",".",".",".",".",".",".",".",3,6,3,".",".",".",".",".",".",".",".","|"],[".",".",".",".",".",".",3,4,".",".",".",4,3,".",".",".",".",".",".","|"],[".",".",".",".",".",3,".",".",".",".",".",".",".",3,".",".",".",".",".","|"],[".",".",".",".",5,".",".",".",".",".",".",".",".",".",5,".",".",".",".","|"],[".",".",5,6,".",".",".",".",".",".",".",".",".",".",".",6,5,".",".","|"],[3,6,".",".",".",".",".",".",".",".",".",".",".",".",".",".",".",6,3,"|"]],[[6,"|"],[8,"|"],[7,"|"],[8,"|"],[6,"|"],[".","|"]],[[".",".",".",".",".",".",".",".",6,".",".",".",".",".",".",".",".","|"],[".",".",".",".",".",".",".",8,".",8,".",".",".",".",".",".",".","|"],[".",".",".",".",".",7,8,".",".",".",8,7,".",".",".",".",".","|"],[".",".",".",5,8,".",".",".",".",".",".",".",8,5,".",".",".","|"],[".",5,6,".",".",".",".",".",".",".",".",".",".",".",6,5,".","|"],[6,".",".",".",".",".",".",".",".",".",".",".",".",".",".",".",6,"|"]],[[10,"|"],[8,"|"],[8,"|"],[8,"|"],[".","|"],[11,"|"]],[[".",".",".",".",".",".",".",10,11,10,".",".",".",".",".",".",".","|"],[".",".",".",".",".",8,11,".",".",".",11,8,".",".",".",".",".","|"],[".",".",".",7,8,".",".",".",".",".",".",".",8,7,".",".",".","|"],[".",".",8,".",".",".",".",".",".",".",".",".",".",".",8,".",".","|"],[".",10,".",".",".",".",".",".",".",".",".",".",".",".",".",10,".","|"],[11,".",".",".",".",".",".",".",".",".",".",".",".",".",".",".",11,"|"]],[[".","|"],[11,"|"],[12,"|"],[12,"|"],[".","|"],[11,"|"]],[[".",".",".",".",".",".",".",10,11,10,".",".",".",".",".",".",".","|"],[".",".",".",".",".",".",11,".",".",".",11,".",".",".",".",".",".","|"],[".",".",".",".",".",12,".",".",".",".",".",12,".",".",".",".",".","|"],[".",".",".",12,13,".",".",".",".",".",".",".",13,12,".",".",".","|"],[".",10,13,".",".",".",".",".",".",".",".",".",".",".",13,10,".","|"],[11,".",".",".",".",".",".",".",".",".",".",".",".",".",".",".",11,"|"]],[[3,"|"],[3,"|"],[3,"|"],[1,"|"],[".","|"],[".","|"]],[[".",".",".",".",".",".",".",".",15,".",".",".",".",".",".",".",".","|"],[".",".",".",".",".",".",15,16,".",16,15,".",".",".",".",".",".","|"],[".",".",".",".",12,15,".",".",".",".",".",15,12,".",".",".",".","|"],[".",".",12,13,".",".",".",".",".",".",".",".",".",13,12,".",".","|"],[".",13,".",".",".",".",".",".",".",".",".",".",".",".",".",13,".","|"],[15,".",".",".",".",".",".",".",".",".",".",".",".",".",".",".",15,"|"]]],"numberofstrings":6,"notes":["E","B","G","D","A","E","B"],"capo":0,"stringnotes":["E4","B3","G3","D3","A2","E2"],"comments":["Stave 1:","Stave 2:","Stave 3:","Stave 4:","Stave 5:","Stave 6:","Stave 7:","Stave 8:","Stave 9:","Stave 10:"],"timing":[["W"],["W","W","W","W","W","W","W","W","W","W","W","W","W","W","W","W","W","W","W"],["W"],["W","W","W","W","W","W","W","W","W","W","W","W","W","W","W","W","W"],["W"],["W","W","W","W","W","W","W","W","W","W","W","W","W","W","W","W","W"],["W"],["W","W","W","W","W","W","W","W","W","W","W","W","W","W","W","W","W"],["W"],["W","W","W","W","W","W","W","W","W","W","W","W","W","W","W","W","W"]],"timingvisible":false,"tabcounter":18,"stave":9,"totalstaves":10,"instrument":"6guitar","selectedtuning":"6_standard","version":"13"}

Member for

2 days 20 hours
Submitted by Mauro Varela on Tue, 2020-09-15 13:41