Ebm7b5

Chords

01234567891011121314151617181920212223
E
B
G
D
A
E
B
0 1 2 3 4 5 6 7 8 9 10 11 12 13 14 15 16 17 18 19 20 21 22 23
(/) Slide Up  (\) Slide Down  (h) Hammer On  (p) Pull Off  (b) Bend (r) Release (v) Vibrato

Stave 1:

E|--2--|--
B|--2--|--
G|--2--|--
D|--1--|--
A|-----|--
E|-----|--

Stave 2:

E|--------------------------2--5--2--------------------------|--
B|--------------------2--4-----------4--2--------------------|--
G|-----------------2-----------------------2-----------------|--
D|-----------1--4-----------------------------4--1-----------|--
A|--------4-----------------------------------------4--------|--
E|--2--5-----------------------------------------------5--2--|--

Stave 3:

E|--5--|--
B|--4--|--
G|--6--|--
D|--4--|--
A|--6--|--
E|-----|--

Stave 4:

E|--------------------------5--------------------------|--
B|--------------------4--7-----7--4--------------------|--
G|-----------------6-----------------6-----------------|--
D|-----------4--7-----------------------7--4-----------|--
A|-----4--6-----------------------------------6--4-----|--
E|--5-----------------------------------------------5--|--

Stave 5:

E|-----|--
B|--9--|--
G|--8--|--
D|--9--|--
A|--8--|--
E|-----|--

Stave 6:

E|-----------------------------7--11--7-----------------------------|--
B|--------------------------9------------9--------------------------|--
G|-------------------8--10------------------10--8-------------------|--
D|----------------9--------------------------------9----------------|--
A|---------8--11--------------------------------------11--8---------|--
E|--7--11----------------------------------------------------11--7--|--

Stave 7:

E|------|--
B|--10--|--
G|--11--|--
D|--11--|--
A|------|--
E|--11--|--

Stave 8:

E|----------------------------9--11--9----------------------------|--
B|------------------------10------------10------------------------|--
G|-----------------8--11--------------------11--8-----------------|--
D|-------------11----------------------------------11-------------|--
A|------9--12------------------------------------------12--9------|--
E|--11--------------------------------------------------------11--|--

Stave 9:

E|--11--|--
B|--14--|--
G|--11--|--
D|--11--|--
A|--12--|--
E|--11--|--

Stave 10:

E|----------------------------------11--14--11----------------------------------|--
B|------------------------------14--------------14------------------------------|--
G|----------------------11--14----------------------14--11----------------------|--
D|--------------11--13--------------------------------------13--11--------------|--
A|----------12------------------------------------------------------12----------|--
E|--11--14--------------------------------------------------------------14--11--|--

							http://www.guitartabcreator.com
Instruments
{"strings":[[[2,"|"],[2,"|"],[2,"|"],[1,"|"],[".","|"],[".","|"]],[[".",".",".",".",".",".",".",".",2,5,2,".",".",".",".",".",".",".",".","|"],[".",".",".",".",".",".",2,4,".",".",".",4,2,".",".",".",".",".",".","|"],[".",".",".",".",".",2,".",".",".",".",".",".",".",2,".",".",".",".",".","|"],[".",".",".",1,4,".",".",".",".",".",".",".",".",".",4,1,".",".",".","|"],[".",".",4,".",".",".",".",".",".",".",".",".",".",".",".",".",4,".",".","|"],[2,5,".",".",".",".",".",".",".",".",".",".",".",".",".",".",".",5,2,"|"]],[[5,"|"],[4,"|"],[6,"|"],[4,"|"],[6,"|"],[".","|"]],[[".",".",".",".",".",".",".",".",5,".",".",".",".",".",".",".",".","|"],[".",".",".",".",".",".",4,7,".",7,4,".",".",".",".",".",".","|"],[".",".",".",".",".",6,".",".",".",".",".",6,".",".",".",".",".","|"],[".",".",".",4,7,".",".",".",".",".",".",".",7,4,".",".",".","|"],[".",4,6,".",".",".",".",".",".",".",".",".",".",".",6,4,".","|"],[5,".",".",".",".",".",".",".",".",".",".",".",".",".",".",".",5,"|"]],[[".","|"],[9,"|"],[8,"|"],[9,"|"],[8,"|"],[".","|"]],[[".",".",".",".",".",".",".",".",7,11,7,".",".",".",".",".",".",".",".","|"],[".",".",".",".",".",".",".",9,".",".",".",9,".",".",".",".",".",".",".","|"],[".",".",".",".",".",8,10,".",".",".",".",".",10,8,".",".",".",".",".","|"],[".",".",".",".",9,".",".",".",".",".",".",".",".",".",9,".",".",".",".","|"],[".",".",8,11,".",".",".",".",".",".",".",".",".",".",".",11,8,".",".","|"],[7,11,".",".",".",".",".",".",".",".",".",".",".",".",".",".",".",11,7,"|"]],[[".","|"],[10,"|"],[11,"|"],[11,"|"],[".","|"],[11,"|"]],[[".",".",".",".",".",".",".",9,11,9,".",".",".",".",".",".",".","|"],[".",".",".",".",".",".",10,".",".",".",10,".",".",".",".",".",".","|"],[".",".",".",".",8,11,".",".",".",".",".",11,8,".",".",".",".","|"],[".",".",".",11,".",".",".",".",".",".",".",".",".",11,".",".",".","|"],[".",9,12,".",".",".",".",".",".",".",".",".",".",".",12,9,".","|"],[11,".",".",".",".",".",".",".",".",".",".",".",".",".",".",".",11,"|"]],[[11,"|"],[14,"|"],[11,"|"],[11,"|"],[12,"|"],[11,"|"]],[[".",".",".",".",".",".",".",".",11,14,11,".",".",".",".",".",".",".",".","|"],[".",".",".",".",".",".",".",14,".",".",".",14,".",".",".",".",".",".",".","|"],[".",".",".",".",".",11,14,".",".",".",".",".",14,11,".",".",".",".",".","|"],[".",".",".",11,13,".",".",".",".",".",".",".",".",".",13,11,".",".",".","|"],[".",".",12,".",".",".",".",".",".",".",".",".",".",".",".",".",12,".",".","|"],[11,14,".",".",".",".",".",".",".",".",".",".",".",".",".",".",".",14,11,"|"]]],"numberofstrings":6,"notes":["E","B","G","D","A","E","B"],"capo":0,"stringnotes":["E4","B3","G3","D3","A2","E2"],"comments":["Stave 1:","Stave 2:","Stave 3:","Stave 4:","Stave 5:","Stave 6:","Stave 7:","Stave 8:","Stave 9:","Stave 10:"],"timing":[["W"],["W","W","W","W","W","W","W","W","W","W","W","W","W","W","W","W","W","W","W"],["W"],["W","W","W","W","W","W","W","W","W","W","W","W","W","W","W","W","W"],["W"],["W","W","W","W","W","W","W","W","W","W","W","W","W","W","W","W","W","W","W"],["W"],["W","W","W","W","W","W","W","W","W","W","W","W","W","W","W","W","W"],["W"],["W","W","W","W","W","W","W","W","W","W","W","W","W","W","W","W","W","W","W"]],"timingvisible":false,"tabcounter":20,"stave":9,"totalstaves":10,"instrument":"6guitar","selectedtuning":"6_standard","version":"13"}

Member for

2 days 20 hours
Submitted by Mauro Varela on Tue, 2020-09-15 15:05