Ebm7

Chords

01234567891011121314151617181920212223
E
B
G
D
A
E
B
0 1 2 3 4 5 6 7 8 9 10 11 12 13 14 15 16 17 18 19 20 21 22 23
(/) Slide Up  (\) Slide Down  (h) Hammer On  (p) Pull Off  (b) Bend (r) Release (v) Vibrato

Stave 1:

E|--2--|--
B|--2--|--
G|--3--|--
D|--1--|--
A|-----|--
E|-----|--

Stave 2:

E|--------------------------2--------------------------|--
B|--------------------2--4-----4--2--------------------|--
G|-----------------3-----------------3-----------------|--
D|-----------1--4-----------------------4--1-----------|--
A|-----1--4-----------------------------------4--1-----|--
E|--2-----------------------------------------------2--|--

Stave 3:

E|-----|--
B|--7--|--
G|--6--|--
D|--4--|--
A|--6--|--
E|-----|--

Stave 4:

E|--------------------------6--------------------------|--
B|--------------------4--7-----7--4--------------------|--
G|--------------3--6-----------------6--3--------------|--
D|-----------4-----------------------------4-----------|--
A|-----4--6-----------------------------------6--4-----|--
E|--6-----------------------------------------------6--|--

Stave 5:

E|--6--|--
B|--7--|--
G|--6--|--
D|--8--|--
A|--6--|--
E|-----|--

Stave 6:

E|--------------------------6--9--6--------------------------|--
B|-----------------------7-----------7-----------------------|--
G|-----------------6--8-----------------8--6-----------------|--
D|--------------8-----------------------------8--------------|--
A|--------6--9-----------------------------------9--6--------|--
E|--6--9-----------------------------------------------9--6--|--

Stave 7:

E|--11--|--
B|--11--|--
G|--11--|--
D|--11--|--
A|------|--
E|--11--|--

Stave 8:

E|---------------------------9--11--9---------------------------|--
B|-----------------------11------------11-----------------------|--
G|----------------8--11--------------------11--8----------------|--
D|---------8--11----------------------------------11--8---------|--
A|------9------------------------------------------------9------|--
E|--11------------------------------------------------------11--|--

Stave 9:

E|--11--|--
B|--14--|--
G|--11--|--
D|--11--|--
A|--13--|--
E|--11--|--

Stave 10:

E|----------------------------------11--14--11----------------------------------|--
B|--------------------------11--14--------------14--11--------------------------|--
G|----------------------11------------------------------11----------------------|--
D|--------------11--13--------------------------------------13--11--------------|--
A|----------13------------------------------------------------------13----------|--
E|--11--14--------------------------------------------------------------14--11--|--

							http://www.guitartabcreator.com
Instruments
{"strings":[[[2,"|"],[2,"|"],[3,"|"],[1,"|"],[".","|"],[".","|"]],[[".",".",".",".",".",".",".",".",2,".",".",".",".",".",".",".",".","|"],[".",".",".",".",".",".",2,4,".",4,2,".",".",".",".",".",".","|"],[".",".",".",".",".",3,".",".",".",".",".",3,".",".",".",".",".","|"],[".",".",".",1,4,".",".",".",".",".",".",".",4,1,".",".",".","|"],[".",1,4,".",".",".",".",".",".",".",".",".",".",".",4,1,".","|"],[2,".",".",".",".",".",".",".",".",".",".",".",".",".",".",".",2,"|"]],[[".","|"],[7,"|"],[6,"|"],[4,"|"],[6,"|"],[".","|"]],[[".",".",".",".",".",".",".",".",6,".",".",".",".",".",".",".",".","|"],[".",".",".",".",".",".",4,7,".",7,4,".",".",".",".",".",".","|"],[".",".",".",".",3,6,".",".",".",".",".",6,3,".",".",".",".","|"],[".",".",".",4,".",".",".",".",".",".",".",".",".",4,".",".",".","|"],[".",4,6,".",".",".",".",".",".",".",".",".",".",".",6,4,".","|"],[6,".",".",".",".",".",".",".",".",".",".",".",".",".",".",".",6,"|"]],[[6,"|"],[7,"|"],[6,"|"],[8,"|"],[6,"|"],[".","|"]],[[".",".",".",".",".",".",".",".",6,9,6,".",".",".",".",".",".",".",".","|"],[".",".",".",".",".",".",".",7,".",".",".",7,".",".",".",".",".",".",".","|"],[".",".",".",".",".",6,8,".",".",".",".",".",8,6,".",".",".",".",".","|"],[".",".",".",".",8,".",".",".",".",".",".",".",".",".",8,".",".",".",".","|"],[".",".",6,9,".",".",".",".",".",".",".",".",".",".",".",9,6,".",".","|"],[6,9,".",".",".",".",".",".",".",".",".",".",".",".",".",".",".",9,6,"|"]],[[11,"|"],[11,"|"],[11,"|"],[11,"|"],[".","|"],[11,"|"]],[[".",".",".",".",".",".",".",9,11,9,".",".",".",".",".",".",".","|"],[".",".",".",".",".",".",11,".",".",".",11,".",".",".",".",".",".","|"],[".",".",".",".",8,11,".",".",".",".",".",11,8,".",".",".",".","|"],[".",".",8,11,".",".",".",".",".",".",".",".",".",11,8,".",".","|"],[".",9,".",".",".",".",".",".",".",".",".",".",".",".",".",9,".","|"],[11,".",".",".",".",".",".",".",".",".",".",".",".",".",".",".",11,"|"]],[[11,"|"],[14,"|"],[11,"|"],[11,"|"],[13,"|"],[11,"|"]],[[".",".",".",".",".",".",".",".",11,14,11,".",".",".",".",".",".",".",".","|"],[".",".",".",".",".",".",11,14,".",".",".",14,11,".",".",".",".",".",".","|"],[".",".",".",".",".",11,".",".",".",".",".",".",".",11,".",".",".",".",".","|"],[".",".",".",11,13,".",".",".",".",".",".",".",".",".",13,11,".",".",".","|"],[".",".",13,".",".",".",".",".",".",".",".",".",".",".",".",".",13,".",".","|"],[11,14,".",".",".",".",".",".",".",".",".",".",".",".",".",".",".",14,11,"|"]]],"numberofstrings":6,"notes":["E","B","G","D","A","E","B"],"capo":0,"stringnotes":["E4","B3","G3","D3","A2","E2"],"comments":["Stave 1:","Stave 2:","Stave 3:","Stave 4:","Stave 5:","Stave 6:","Stave 7:","Stave 8:","Stave 9:","Stave 10:"],"timing":[["W"],["W","W","W","W","W","W","W","W","W","W","W","W","W","W","W","W","W"],["W"],["W","W","W","W","W","W","W","W","W","W","W","W","W","W","W","W","W"],["W"],["W","W","W","W","W","W","W","W","W","W","W","W","W","W","W","W","W","W","W"],["W"],["W","W","W","W","W","W","W","W","W","W","W","W","W","W","W","W","W"],["W"],["W","W","W","W","W","W","W","W","W","W","W","W","W","W","W","W","W","W","W"]],"timingvisible":false,"tabcounter":18,"stave":3,"totalstaves":10,"instrument":"6guitar","selectedtuning":"6_standard","version":"13"}

Member for

2 days 20 hours
Submitted by Mauro Varela on Tue, 2020-09-15 12:52