DbMaj7

Chords

01234567891011121314151617181920212223
E
B
G
D
A
E
B
0 1 2 3 4 5 6 7 8 9 10 11 12 13 14 15 16 17 18 19 20 21 22 23
(/) Slide Up  (\) Slide Down  (h) Hammer On  (p) Pull Off  (b) Bend (r) Release (v) Vibrato

Stave 1:

E|--1--|--
B|--1--|--
G|--1--|--
D|--3--|--
A|--4--|--
E|-----|--

Stave 2:

E|--------------------------1--4--1--------------------------|--
B|--------------------1--2-----------2--1--------------------|--
G|-----------------1-----------------------1-----------------|--
D|--------------3-----------------------------3--------------|--
A|--------3--4-----------------------------------4--3--------|--
E|--1--4-----------------------------------------------4--1--|--

Stave 3:

E|--4--|--
B|--6--|--
G|--5--|--
D|--6--|--
A|--4--|--
E|-----|--

Stave 4:

E|--------------------------4--------------------------|--
B|-----------------------6-----6-----------------------|--
G|-----------------5--6-----------6--5-----------------|--
D|-----------3--6-----------------------6--3-----------|--
A|-----3--4-----------------------------------4--3-----|--
E|--4-----------------------------------------------4--|--

Stave 5:

E|--8--|--
B|--6--|--
G|--6--|--
D|--6--|--
A|-----|--
E|--9--|--

Stave 6:

E|-----------------------8--9--8-----------------------|--
B|-----------------6--9-----------9--6-----------------|--
G|-----------5--6-----------------------6--5-----------|--
D|--------6-----------------------------------6--------|--
A|-----8-----------------------------------------8-----|--
E|--9-----------------------------------------------9--|--

Stave 7:

E|------|--
B|--9---|--
G|--10--|--
D|--10--|--
A|------|--
E|--9---|--

Stave 8:

E|---------------------------8--9--8---------------------------|--
B|------------------------9-----------9------------------------|--
G|--------------------10-----------------10--------------------|--
D|------------10--11-------------------------11--10------------|--
A|-----8--11-----------------------------------------11--8-----|--
E|--9-------------------------------------------------------9--|--

Stave 9:

E|--13--|--
B|--13--|--
G|--13--|--
D|--11--|--
A|------|--
E|------|--

Stave 10:

E|----------------------------------13----------------------------------|--
B|--------------------------13--14------14--13--------------------------|--
G|------------------10--13----------------------13--10------------------|--
D|----------10--11--------------------------------------11--10----------|--
A|------11------------------------------------------------------11------|--
E|--13--------------------------------------------------------------13--|--

							http://www.guitartabcreator.com
Instruments
{"strings":[[[1,"|"],[1,"|"],[1,"|"],[3,"|"],[4,"|"],[".","|"]],[[".",".",".",".",".",".",".",".",1,4,1,".",".",".",".",".",".",".",".","|"],[".",".",".",".",".",".",1,2,".",".",".",2,1,".",".",".",".",".",".","|"],[".",".",".",".",".",1,".",".",".",".",".",".",".",1,".",".",".",".",".","|"],[".",".",".",".",3,".",".",".",".",".",".",".",".",".",3,".",".",".",".","|"],[".",".",3,4,".",".",".",".",".",".",".",".",".",".",".",4,3,".",".","|"],[1,4,".",".",".",".",".",".",".",".",".",".",".",".",".",".",".",4,1,"|"]],[[4,"|"],[6,"|"],[5,"|"],[6,"|"],[4,"|"],[".","|"]],[[".",".",".",".",".",".",".",".",4,".",".",".",".",".",".",".",".","|"],[".",".",".",".",".",".",".",6,".",6,".",".",".",".",".",".",".","|"],[".",".",".",".",".",5,6,".",".",".",6,5,".",".",".",".",".","|"],[".",".",".",3,6,".",".",".",".",".",".",".",6,3,".",".",".","|"],[".",3,4,".",".",".",".",".",".",".",".",".",".",".",4,3,".","|"],[4,".",".",".",".",".",".",".",".",".",".",".",".",".",".",".",4,"|"]],[[8,"|"],[6,"|"],[6,"|"],[6,"|"],[".","|"],[9,"|"]],[[".",".",".",".",".",".",".",8,9,8,".",".",".",".",".",".",".","|"],[".",".",".",".",".",6,9,".",".",".",9,6,".",".",".",".",".","|"],[".",".",".",5,6,".",".",".",".",".",".",".",6,5,".",".",".","|"],[".",".",6,".",".",".",".",".",".",".",".",".",".",".",6,".",".","|"],[".",8,".",".",".",".",".",".",".",".",".",".",".",".",".",8,".","|"],[9,".",".",".",".",".",".",".",".",".",".",".",".",".",".",".",9,"|"]],[[".","|"],[9,"|"],[10,"|"],[10,"|"],[".","|"],[9,"|"]],[[".",".",".",".",".",".",".",8,9,8,".",".",".",".",".",".",".","|"],[".",".",".",".",".",".",9,".",".",".",9,".",".",".",".",".",".","|"],[".",".",".",".",".",10,".",".",".",".",".",10,".",".",".",".",".","|"],[".",".",".",10,11,".",".",".",".",".",".",".",11,10,".",".",".","|"],[".",8,11,".",".",".",".",".",".",".",".",".",".",".",11,8,".","|"],[9,".",".",".",".",".",".",".",".",".",".",".",".",".",".",".",9,"|"]],[[13,"|"],[13,"|"],[13,"|"],[11,"|"],[".","|"],[".","|"]],[[".",".",".",".",".",".",".",".",13,".",".",".",".",".",".",".",".","|"],[".",".",".",".",".",".",13,14,".",14,13,".",".",".",".",".",".","|"],[".",".",".",".",10,13,".",".",".",".",".",13,10,".",".",".",".","|"],[".",".",10,11,".",".",".",".",".",".",".",".",".",11,10,".",".","|"],[".",11,".",".",".",".",".",".",".",".",".",".",".",".",".",11,".","|"],[13,".",".",".",".",".",".",".",".",".",".",".",".",".",".",".",13,"|"]]],"numberofstrings":6,"notes":["E","B","G","D","A","E","B"],"capo":0,"stringnotes":["E4","B3","G3","D3","A2","E2"],"comments":["Stave 1:","Stave 2:","Stave 3:","Stave 4:","Stave 5:","Stave 6:","Stave 7:","Stave 8:","Stave 9:","Stave 10:"],"timing":[["W"],["W","W","W","W","W","W","W","W","W","W","W","W","W","W","W","W","W","W","W"],["W"],["W","W","W","W","W","W","W","W","W","W","W","W","W","W","W","W","W"],["W"],["W","W","W","W","W","W","W","W","W","W","W","W","W","W","W","W","W"],["W"],["W","W","W","W","W","W","W","W","W","W","W","W","W","W","W","W","W"],["W"],["W","W","W","W","W","W","W","W","W","W","W","W","W","W","W","W","W"]],"timingvisible":false,"tabcounter":18,"stave":9,"totalstaves":10,"instrument":"6guitar","selectedtuning":"6_standard","version":"13"}

Member for

2 days 20 hours
Submitted by Mauro Varela on Wed, 2020-09-16 19:43