Dbm7b5

Chords

01234567891011121314151617181920212223
E
B
G
D
A
E
B
0 1 2 3 4 5 6 7 8 9 10 11 12 13 14 15 16 17 18 19 20 21 22 23
(/) Slide Up  (\) Slide Down  (h) Hammer On  (p) Pull Off  (b) Bend (r) Release (v) Vibrato

Stave 1:

E|-----3--|--
B|-----2--|--
G|-----4--|--
D|-----2--|--
A|-----4--|--
E|--------|--

Stave 2:

E|--------------------------3--------------------------|--
B|--------------------2--5-----5--2--------------------|--
G|-----------------4-----------------4-----------------|--
D|-----------2--5-----------------------5--2-----------|--
A|-----2--4-----------------------------------4--2-----|--
E|--3-----------------------------------------------3--|--

Stave 3:

E|-----|--
B|--5--|--
G|--4--|--
D|--5--|--
A|--4--|--
E|-----|--

Stave 4:

E|--------------------------3--7--3--------------------------|--
B|-----------------------5-----------5-----------------------|--
G|-----------------4--6-----------------6--4-----------------|--
D|--------------5-----------------------------5--------------|--
A|--------4--7-----------------------------------7--4--------|--
E|--3--7-----------------------------------------------7--3--|--

Stave 5:

E|-----|--
B|--8--|--
G|--9--|--
D|--9--|--
A|-----|--
E|--9--|--

Stave 6:

E|------------------------7--9--7------------------------|--------
B|---------------------8-----------8---------------------|--------
G|---------------6--9-----------------9--6---------------|--------
D|------------9-----------------------------9------------|--------
A|-----7--10-----------------------------------10--7-----|--------
E|--9-------------------------------------------------9--|--------

Stave 7:

E|--9---|--
B|--12--|--
G|--9---|--
D|--9---|--
A|--10--|--
E|--9---|--

Stave 8:

E|-------------------------------9--12--9-------------------------------|--
B|---------------------------12------------12---------------------------|--
G|--------------------9--12--------------------12--9--------------------|--
D|-------------9--11----------------------------------11--9-------------|--
A|---------10------------------------------------------------10---------|--
E|--9--12--------------------------------------------------------12--9--|--

Stave 9:

E|--12--|--
B|--12--|--
G|--12--|--
D|--11--|--
A|------|--
E|------|--

Stave 10:

E|----------------------------------12--15--12----------------------------------|--
B|--------------------------12--14--------------14--12--------------------------|--
G|----------------------12------------------------------12----------------------|--
D|--------------11--14--------------------------------------14--11--------------|--
A|----------14------------------------------------------------------14----------|--
E|--12--15--------------------------------------------------------------15--12--|--

							http://www.guitartabcreator.com
Instruments
{"strings":[[[".",3,"|"],[".",2,"|"],[".",4,"|"],[".",2,"|"],[".",4,"|"],[".",".","|"]],[[".",".",".",".",".",".",".",".",3,".",".",".",".",".",".",".",".","|"],[".",".",".",".",".",".",2,5,".",5,2,".",".",".",".",".",".","|"],[".",".",".",".",".",4,".",".",".",".",".",4,".",".",".",".",".","|"],[".",".",".",2,5,".",".",".",".",".",".",".",5,2,".",".",".","|"],[".",2,4,".",".",".",".",".",".",".",".",".",".",".",4,2,".","|"],[3,".",".",".",".",".",".",".",".",".",".",".",".",".",".",".",3,"|"]],[[".","|"],[5,"|"],[4,"|"],[5,"|"],[4,"|"],[".","|"]],[[".",".",".",".",".",".",".",".",3,7,3,".",".",".",".",".",".",".",".","|"],[".",".",".",".",".",".",".",5,".",".",".",5,".",".",".",".",".",".",".","|"],[".",".",".",".",".",4,6,".",".",".",".",".",6,4,".",".",".",".",".","|"],[".",".",".",".",5,".",".",".",".",".",".",".",".",".",5,".",".",".",".","|"],[".",".",4,7,".",".",".",".",".",".",".",".",".",".",".",7,4,".",".","|"],[3,7,".",".",".",".",".",".",".",".",".",".",".",".",".",".",".",7,3,"|"]],[[".","|"],[8,"|"],[9,"|"],[9,"|"],[".","|"],[9,"|"]],[[".",".",".",".",".",".",".",7,9,7,".",".",".",".",".",".",".","|","_","_"],[".",".",".",".",".",".",8,".",".",".",8,".",".",".",".",".",".","|","_","_"],[".",".",".",".",6,9,".",".",".",".",".",9,6,".",".",".",".","|","_","_"],[".",".",".",9,".",".",".",".",".",".",".",".",".",9,".",".",".","|","_","_"],[".",7,10,".",".",".",".",".",".",".",".",".",".",".",10,7,".","|","_","_"],[9,".",".",".",".",".",".",".",".",".",".",".",".",".",".",".",9,"|","_","_"]],[[9,"|"],[12,"|"],[9,"|"],[9,"|"],[10,"|"],[9,"|"]],[[".",".",".",".",".",".",".",".",9,12,9,".",".",".",".",".",".",".",".","|"],[".",".",".",".",".",".",".",12,".",".",".",12,".",".",".",".",".",".",".","|"],[".",".",".",".",".",9,12,".",".",".",".",".",12,9,".",".",".",".",".","|"],[".",".",".",9,11,".",".",".",".",".",".",".",".",".",11,9,".",".",".","|"],[".",".",10,".",".",".",".",".",".",".",".",".",".",".",".",".",10,".",".","|"],[9,12,".",".",".",".",".",".",".",".",".",".",".",".",".",".",".",12,9,"|"]],[[12,"|"],[12,"|"],[12,"|"],[11,"|"],[".","|"],[".","|"]],[[".",".",".",".",".",".",".",".",12,15,12,".",".",".",".",".",".",".",".","|"],[".",".",".",".",".",".",12,14,".",".",".",14,12,".",".",".",".",".",".","|"],[".",".",".",".",".",12,".",".",".",".",".",".",".",12,".",".",".",".",".","|"],[".",".",".",11,14,".",".",".",".",".",".",".",".",".",14,11,".",".",".","|"],[".",".",14,".",".",".",".",".",".",".",".",".",".",".",".",".",14,".",".","|"],[12,15,".",".",".",".",".",".",".",".",".",".",".",".",".",".",".",15,12,"|"]]],"numberofstrings":6,"notes":["E","B","G","D","A","E","B"],"capo":0,"stringnotes":["E4","B3","G3","D3","A2","E2"],"comments":["Stave 1:","Stave 2:","Stave 3:","Stave 4:","Stave 5:","Stave 6:","Stave 7:","Stave 8:","Stave 9:","Stave 10:"],"timing":[[null,"W"],["W","W","W","W","W","W","W","W","W","W","W","W","W","W","W","W","W"],["W","W","W"],["W","W","W","W","W","W","W","W","W","W","W","W","W","W","W","W","W","W","W"],["W"],["W","W","W","W","W","W","W","W","W","W","W","W","W","W","W","W","W"],["W"],["W","W","W","W","W","W","W","W","W","W","W","W","W","W","W","W","W","W","W"],["W"],["W","W","W","W","W","W","W","W","W","W","W","W","W","W","W","W","W","W","W"]],"timingvisible":false,"tabcounter":20,"stave":9,"totalstaves":10,"instrument":"6guitar","selectedtuning":"6_standard","version":"13"}

Member for

2 days 20 hours
Submitted by Mauro Varela on Wed, 2020-09-16 19:58