Db7

Chords

01234567891011121314151617181920212223
E
B
G
D
A
E
B
0 1 2 3 4 5 6 7 8 9 10 11 12 13 14 15 16 17 18 19 20 21 22 23
(/) Slide Up  (\) Slide Down  (h) Hammer On  (p) Pull Off  (b) Bend (r) Release (v) Vibrato

Stave 1:

E|-----|--
B|--2--|--
G|--4--|--
D|--3--|--
A|--4--|--
E|-----|--

Stave 2:

E|--------------------------1--4--1--------------------------|--
B|-----------------------2-----------2-----------------------|--
G|-----------------1--4-----------------4--1-----------------|--
D|--------------3-----------------------------3--------------|--
A|--------2--4-----------------------------------4--2--------|--
E|--1--4-----------------------------------------------4--1--|--

Stave 3:

E|--4--|--
B|--6--|--
G|--4--|--
D|--6--|--
A|--4--|--
E|-----|--

Stave 4:

E|--------------------------4--7--4--------------------------|--
B|-----------------------6-----------6-----------------------|--
G|-----------------4--6-----------------6--4-----------------|--
D|-----------3--6-----------------------------6--3-----------|--
A|--------4-----------------------------------------4--------|--
E|--4--7-----------------------------------------------7--4--|--

Stave 5:

E|-----|--
B|--6--|--
G|--6--|--
D|--9--|--
A|--8--|--
E|--9--|--

Stave 6:

E|-----------------------7--9--7-----------------------|--
B|-----------------6--9-----------9--6-----------------|--
G|--------------6-----------------------6--------------|--
D|--------6--9-----------------------------9--6--------|--
A|-----8-----------------------------------------8-----|--
E|--9-----------------------------------------------9--|--

Stave 7:

E|--9---|--
B|--9---|--
G|--10--|--
D|--9---|--
A|--11--|--
E|--9---|--

Stave 8:

E|------------------------------9------------------------------|--
B|-----------------------9--12-----12--9-----------------------|--
G|-------------------10-------------------10-------------------|--
D|------------9--11---------------------------11--9------------|--
A|-----8--11-----------------------------------------11--8-----|--
E|--9-------------------------------------------------------9--|--

Stave 9:

E|--13--|--
B|--12--|--
G|--13--|--
D|--11--|--
A|------|--
E|------|--

Stave 10:

E|----------------------------------13----------------------------------|--
B|--------------------------12--14------14--12--------------------------|--
G|------------------10--13----------------------13--10------------------|--
D|--------------11--------------------------------------11--------------|--
A|------11--14----------------------------------------------14--11------|--
E|--13--------------------------------------------------------------13--|--

							http://www.guitartabcreator.com
Instruments
{"strings":[[[".","|"],[2,"|"],[4,"|"],[3,"|"],[4,"|"],[".","|"]],[[".",".",".",".",".",".",".",".",1,4,1,".",".",".",".",".",".",".",".","|"],[".",".",".",".",".",".",".",2,".",".",".",2,".",".",".",".",".",".",".","|"],[".",".",".",".",".",1,4,".",".",".",".",".",4,1,".",".",".",".",".","|"],[".",".",".",".",3,".",".",".",".",".",".",".",".",".",3,".",".",".",".","|"],[".",".",2,4,".",".",".",".",".",".",".",".",".",".",".",4,2,".",".","|"],[1,4,".",".",".",".",".",".",".",".",".",".",".",".",".",".",".",4,1,"|"]],[[4,"|"],[6,"|"],[4,"|"],[6,"|"],[4,"|"],[".","|"]],[[".",".",".",".",".",".",".",".",4,7,4,".",".",".",".",".",".",".",".","|"],[".",".",".",".",".",".",".",6,".",".",".",6,".",".",".",".",".",".",".","|"],[".",".",".",".",".",4,6,".",".",".",".",".",6,4,".",".",".",".",".","|"],[".",".",".",3,6,".",".",".",".",".",".",".",".",".",6,3,".",".",".","|"],[".",".",4,".",".",".",".",".",".",".",".",".",".",".",".",".",4,".",".","|"],[4,7,".",".",".",".",".",".",".",".",".",".",".",".",".",".",".",7,4,"|"]],[[".","|"],[6,"|"],[6,"|"],[9,"|"],[8,"|"],[9,"|"]],[[".",".",".",".",".",".",".",7,9,7,".",".",".",".",".",".",".","|"],[".",".",".",".",".",6,9,".",".",".",9,6,".",".",".",".",".","|"],[".",".",".",".",6,".",".",".",".",".",".",".",6,".",".",".",".","|"],[".",".",6,9,".",".",".",".",".",".",".",".",".",9,6,".",".","|"],[".",8,".",".",".",".",".",".",".",".",".",".",".",".",".",8,".","|"],[9,".",".",".",".",".",".",".",".",".",".",".",".",".",".",".",9,"|"]],[[9,"|"],[9,"|"],[10,"|"],[9,"|"],[11,"|"],[9,"|"]],[[".",".",".",".",".",".",".",".",9,".",".",".",".",".",".",".",".","|"],[".",".",".",".",".",".",9,12,".",12,9,".",".",".",".",".",".","|"],[".",".",".",".",".",10,".",".",".",".",".",10,".",".",".",".",".","|"],[".",".",".",9,11,".",".",".",".",".",".",".",11,9,".",".",".","|"],[".",8,11,".",".",".",".",".",".",".",".",".",".",".",11,8,".","|"],[9,".",".",".",".",".",".",".",".",".",".",".",".",".",".",".",9,"|"]],[[13,"|"],[12,"|"],[13,"|"],[11,"|"],[".","|"],[".","|"]],[[".",".",".",".",".",".",".",".",13,".",".",".",".",".",".",".",".","|"],[".",".",".",".",".",".",12,14,".",14,12,".",".",".",".",".",".","|"],[".",".",".",".",10,13,".",".",".",".",".",13,10,".",".",".",".","|"],[".",".",".",11,".",".",".",".",".",".",".",".",".",11,".",".",".","|"],[".",11,14,".",".",".",".",".",".",".",".",".",".",".",14,11,".","|"],[13,".",".",".",".",".",".",".",".",".",".",".",".",".",".",".",13,"|"]]],"numberofstrings":6,"notes":["E","B","G","D","A","E","B"],"capo":0,"stringnotes":["E4","B3","G3","D3","A2","E2"],"comments":["Stave 1:","Stave 2:","Stave 3:","Stave 4:","Stave 5:","Stave 6:","Stave 7:","Stave 8:","Stave 9:","Stave 10:"],"timing":[["W"],["W","W","W","W","W","W","W","W","W","W","W","W","W","W","W","W","W","W","W"],["W"],["W","W","W","W","W","W","W","W","W","W","W","W","W","W","W","W","W","W","W"],["W"],["W","W","W","W","W","W","W","W","W","W","W","W","W","W","W","W","W"],["W"],["W","W","W","W","W","W","W","W","W","W","W","W","W","W","W","W","W"],["W"],["W","W","W","W","W","W","W","W","W","W","W","W","W","W","W","W","W"]],"timingvisible":false,"tabcounter":18,"stave":9,"totalstaves":10,"instrument":"6guitar","selectedtuning":"6_standard","version":"13"}

Member for

2 days 20 hours
Submitted by Mauro Varela on Wed, 2020-09-16 18:03