BbMaj7

Chords

01234567891011121314151617181920212223
E
B
G
D
A
E
B
0 1 2 3 4 5 6 7 8 9 10 11 12 13 14 15 16 17 18 19 20 21 22 23
(/) Slide Up  (\) Slide Down  (h) Hammer On  (p) Pull Off  (b) Bend (r) Release (v) Vibrato

Stave 1:

E|--5--|--
B|--3--|--
G|--3--|--
D|--3--|--
A|-----|--
E|--6--|--

Stave 2:

E|-----------------------5--6--5-----------------------|--
B|-----------------3--6-----------6--3-----------------|--
G|-----------2--3-----------------------3--2-----------|--
D|--------3-----------------------------------3--------|--
A|-----5-----------------------------------------5-----|--
E|--6-----------------------------------------------6--|--

Stave 3:

E|-----|--
B|--6--|--
G|--7--|--
D|--7--|--
A|-----|--
E|--6--|--

Stave 4:

E|-----------------------5--6--5-----------------------|--
B|--------------------6-----------6--------------------|--
G|-----------------7-----------------7-----------------|--
D|-----------7--8-----------------------8--7-----------|--
A|-----5--8-----------------------------------8--5-----|--
E|--6-----------------------------------------------6--|--

Stave 5:

E|--10--|--
B|--10--|--
G|--10--|--
D|--8---|--
A|------|--
E|------|--

Stave 6:

E|------------------------------10------------------------------|--
B|----------------------10--11------11--10----------------------|--
G|---------------7--10----------------------10--7---------------|--
D|---------7--8------------------------------------8--7---------|--
A|------8------------------------------------------------8------|--
E|--10------------------------------------------------------10--|--

Stave 7:

E|--10--|--
B|--10--|--
G|--10--|--
D|--12--|--
A|--13--|--
E|------|--

Stave 8:

E|----------------------------------10--13--10----------------------------------|--
B|--------------------------10--11--------------11--10--------------------------|--
G|----------------------10------------------------------10----------------------|--
D|------------------12--------------------------------------12------------------|--
A|----------12--13----------------------------------------------13--12----------|--
E|--10--13--------------------------------------------------------------13--10--|--

Stave 9:

E|--13--|--
B|--15--|--
G|--14--|--
D|--15--|--
A|--13--|--
E|------|--

Stave 10:

E|----------------------------------13----------------------------------|--
B|------------------------------15------15------------------------------|--
G|----------------------14--15--------------15--14----------------------|--
D|--------------12--15------------------------------15--12--------------|--
A|------12--13----------------------------------------------13--12------|--
E|--13--------------------------------------------------------------13--|--

							http://www.guitartabcreator.com
Instruments
{"strings":[[[5,"|"],[3,"|"],[3,"|"],[3,"|"],[".","|"],[6,"|"]],[[".",".",".",".",".",".",".",5,6,5,".",".",".",".",".",".",".","|"],[".",".",".",".",".",3,6,".",".",".",6,3,".",".",".",".",".","|"],[".",".",".",2,3,".",".",".",".",".",".",".",3,2,".",".",".","|"],[".",".",3,".",".",".",".",".",".",".",".",".",".",".",3,".",".","|"],[".",5,".",".",".",".",".",".",".",".",".",".",".",".",".",5,".","|"],[6,".",".",".",".",".",".",".",".",".",".",".",".",".",".",".",6,"|"]],[[".","|"],[6,"|"],[7,"|"],[7,"|"],[".","|"],[6,"|"]],[[".",".",".",".",".",".",".",5,6,5,".",".",".",".",".",".",".","|"],[".",".",".",".",".",".",6,".",".",".",6,".",".",".",".",".",".","|"],[".",".",".",".",".",7,".",".",".",".",".",7,".",".",".",".",".","|"],[".",".",".",7,8,".",".",".",".",".",".",".",8,7,".",".",".","|"],[".",5,8,".",".",".",".",".",".",".",".",".",".",".",8,5,".","|"],[6,".",".",".",".",".",".",".",".",".",".",".",".",".",".",".",6,"|"]],[[10,"|"],[10,"|"],[10,"|"],[8,"|"],[".","|"],[".","|"]],[[".",".",".",".",".",".",".",".",10,".",".",".",".",".",".",".",".","|"],[".",".",".",".",".",".",10,11,".",11,10,".",".",".",".",".",".","|"],[".",".",".",".",7,10,".",".",".",".",".",10,7,".",".",".",".","|"],[".",".",7,8,".",".",".",".",".",".",".",".",".",8,7,".",".","|"],[".",8,".",".",".",".",".",".",".",".",".",".",".",".",".",8,".","|"],[10,".",".",".",".",".",".",".",".",".",".",".",".",".",".",".",10,"|"]],[[10,"|"],[10,"|"],[10,"|"],[12,"|"],[13,"|"],[".","|"]],[[".",".",".",".",".",".",".",".",10,13,10,".",".",".",".",".",".",".",".","|"],[".",".",".",".",".",".",10,11,".",".",".",11,10,".",".",".",".",".",".","|"],[".",".",".",".",".",10,".",".",".",".",".",".",".",10,".",".",".",".",".","|"],[".",".",".",".",12,".",".",".",".",".",".",".",".",".",12,".",".",".",".","|"],[".",".",12,13,".",".",".",".",".",".",".",".",".",".",".",13,12,".",".","|"],[10,13,".",".",".",".",".",".",".",".",".",".",".",".",".",".",".",13,10,"|"]],[[13,"|"],[15,"|"],[14,"|"],[15,"|"],[13,"|"],[".","|"]],[[".",".",".",".",".",".",".",".",13,".",".",".",".",".",".",".",".","|"],[".",".",".",".",".",".",".",15,".",15,".",".",".",".",".",".",".","|"],[".",".",".",".",".",14,15,".",".",".",15,14,".",".",".",".",".","|"],[".",".",".",12,15,".",".",".",".",".",".",".",15,12,".",".",".","|"],[".",12,13,".",".",".",".",".",".",".",".",".",".",".",13,12,".","|"],[13,".",".",".",".",".",".",".",".",".",".",".",".",".",".",".",13,"|"]]],"numberofstrings":6,"notes":["E","B","G","D","A","E","B"],"capo":0,"stringnotes":["E4","B3","G3","D3","A2","E2"],"comments":["Stave 1:","Stave 2:","Stave 3:","Stave 4:","Stave 5:","Stave 6:","Stave 7:","Stave 8:","Stave 9:","Stave 10:"],"timing":[["W"],["W","W","W","W","W","W","W","W","W","W","W","W","W","W","W","W","W"],["W"],["W","W","W","W","W","W","W","W","W","W","W","W","W","W","W","W","W"],["W"],["W","W","W","W","W","W","W","W","W","W","W","W","W","W","W","W","W"],["W"],["W","W","W","W","W","W","W","W","W","W","W","W","W","W","W","W","W","W","W"],["W"],["W","W","W","W","W","W","W","W","W","W","W","W","W","W","W","W","W"]],"timingvisible":false,"tabcounter":18,"stave":9,"totalstaves":10,"instrument":"6guitar","selectedtuning":"6_standard","version":"13"}

Member for

2 days 20 hours
Submitted by Mauro Varela on Tue, 2020-09-15 08:23