Bbm7b5

Chords

01234567891011121314151617181920212223
E
B
G
D
A
E
B
0 1 2 3 4 5 6 7 8 9 10 11 12 13 14 15 16 17 18 19 20 21 22 23
(/) Slide Up  (\) Slide Down  (h) Hammer On  (p) Pull Off  (b) Bend (r) Release (v) Vibrato

Stave 1:

E|-----|--
B|--5--|--
G|--6--|--
D|--6--|--
A|-----|--
E|--6--|--

Stave 2:

E|-----------------------4--6--4-----------------------|--
B|--------------------5-----------5--------------------|--
G|--------------3--6-----------------6--3--------------|--
D|-----------6-----------------------------6-----------|--
A|-----4--7-----------------------------------7--4-----|--
E|--6-----------------------------------------------6--|--

Stave 3:

E|--6--|--
B|--9--|--
G|--6--|--
D|--6--|--
A|--7--|--
E|--6--|--

Stave 4:

E|--------------------------6--9--6--------------------------|--
B|-----------------------9-----------9-----------------------|--
G|-----------------6--9-----------------9--6-----------------|--
D|-----------6--8-----------------------------8--6-----------|--
A|--------7-----------------------------------------7--------|--
E|--6--9-----------------------------------------------9--6--|--

Stave 5:

E|--9--|--
B|--9--|--
G|--9--|--
D|--8--|--
A|-----|--
E|-----|--

Stave 6:

E|------------------------------9--12--9------------------------------|--
B|-----------------------9--11------------11--9-----------------------|--
G|--------------------9--------------------------9--------------------|--
D|-------------8--11--------------------------------11--8-------------|--
A|---------11----------------------------------------------11---------|--
E|--9--12------------------------------------------------------12--9--|--

Stave 7:

E|--12--|--
B|--11--|--
G|--13--|--
D|--11--|--
A|--13--|--
E|------|--

Stave 8:

E|----------------------------------12----------------------------------|--
B|--------------------------11--14------14--11--------------------------|--
G|----------------------13----------------------13----------------------|--
D|--------------11--14------------------------------14--11--------------|--
A|------11--13----------------------------------------------13--11------|--
E|--12--------------------------------------------------------------12--|--

Stave 9:

E|------|--
B|--14--|--
G|--13--|--
D|--14--|--
A|--13--|--
E|------|--

Stave 10:

E|----------------------------------12--16--12----------------------------------|--
B|------------------------------14--------------14------------------------------|--
G|----------------------13--15----------------------15--13----------------------|--
D|------------------14--------------------------------------14------------------|--
A|----------13--16----------------------------------------------16--13----------|--
E|--12--16--------------------------------------------------------------16--12--|--

							http://www.guitartabcreator.com
Instruments
{"strings":[[[".","|"],[5,"|"],[6,"|"],[6,"|"],[".","|"],[6,"|"]],[[".",".",".",".",".",".",".",4,6,4,".",".",".",".",".",".",".","|"],[".",".",".",".",".",".",5,".",".",".",5,".",".",".",".",".",".","|"],[".",".",".",".",3,6,".",".",".",".",".",6,3,".",".",".",".","|"],[".",".",".",6,".",".",".",".",".",".",".",".",".",6,".",".",".","|"],[".",4,7,".",".",".",".",".",".",".",".",".",".",".",7,4,".","|"],[6,".",".",".",".",".",".",".",".",".",".",".",".",".",".",".",6,"|"]],[[6,"|"],[9,"|"],[6,"|"],[6,"|"],[7,"|"],[6,"|"]],[[".",".",".",".",".",".",".",".",6,9,6,".",".",".",".",".",".",".",".","|"],[".",".",".",".",".",".",".",9,".",".",".",9,".",".",".",".",".",".",".","|"],[".",".",".",".",".",6,9,".",".",".",".",".",9,6,".",".",".",".",".","|"],[".",".",".",6,8,".",".",".",".",".",".",".",".",".",8,6,".",".",".","|"],[".",".",7,".",".",".",".",".",".",".",".",".",".",".",".",".",7,".",".","|"],[6,9,".",".",".",".",".",".",".",".",".",".",".",".",".",".",".",9,6,"|"]],[[9,"|"],[9,"|"],[9,"|"],[8,"|"],[".","|"],[".","|"]],[[".",".",".",".",".",".",".",".",9,12,9,".",".",".",".",".",".",".",".","|"],[".",".",".",".",".",".",9,11,".",".",".",11,9,".",".",".",".",".",".","|"],[".",".",".",".",".",9,".",".",".",".",".",".",".",9,".",".",".",".",".","|"],[".",".",".",8,11,".",".",".",".",".",".",".",".",".",11,8,".",".",".","|"],[".",".",11,".",".",".",".",".",".",".",".",".",".",".",".",".",11,".",".","|"],[9,12,".",".",".",".",".",".",".",".",".",".",".",".",".",".",".",12,9,"|"]],[[12,"|"],[11,"|"],[13,"|"],[11,"|"],[13,"|"],[".","|"]],[[".",".",".",".",".",".",".",".",12,".",".",".",".",".",".",".",".","|"],[".",".",".",".",".",".",11,14,".",14,11,".",".",".",".",".",".","|"],[".",".",".",".",".",13,".",".",".",".",".",13,".",".",".",".",".","|"],[".",".",".",11,14,".",".",".",".",".",".",".",14,11,".",".",".","|"],[".",11,13,".",".",".",".",".",".",".",".",".",".",".",13,11,".","|"],[12,".",".",".",".",".",".",".",".",".",".",".",".",".",".",".",12,"|"]],[[".","|"],[14,"|"],[13,"|"],[14,"|"],[13,"|"],[".","|"]],[[".",".",".",".",".",".",".",".",12,16,12,".",".",".",".",".",".",".",".","|"],[".",".",".",".",".",".",".",14,".",".",".",14,".",".",".",".",".",".",".","|"],[".",".",".",".",".",13,15,".",".",".",".",".",15,13,".",".",".",".",".","|"],[".",".",".",".",14,".",".",".",".",".",".",".",".",".",14,".",".",".",".","|"],[".",".",13,16,".",".",".",".",".",".",".",".",".",".",".",16,13,".",".","|"],[12,16,".",".",".",".",".",".",".",".",".",".",".",".",".",".",".",16,12,"|"]]],"numberofstrings":6,"notes":["E","B","G","D","A","E","B"],"capo":0,"stringnotes":["E4","B3","G3","D3","A2","E2"],"comments":["Stave 1:","Stave 2:","Stave 3:","Stave 4:","Stave 5:","Stave 6:","Stave 7:","Stave 8:","Stave 9:","Stave 10:"],"timing":[["W"],["W","W","W","W","W","W","W","W","W","W","W","W","W","W","W","W","W"],["W"],["W","W","W","W","W","W","W","W","W","W","W","W","W","W","W","W","W","W","W"],["W"],["W","W","W","W","W","W","W","W","W","W","W","W","W","W","W","W","W","W","W"],["W"],["W","W","W","W","W","W","W","W","W","W","W","W","W","W","W","W","W"],["W"],["W","W","W","W","W","W","W","W","W","W","W","W","W","W","W","W","W","W","W"]],"timingvisible":false,"tabcounter":20,"stave":9,"totalstaves":10,"instrument":"6guitar","selectedtuning":"6_standard","version":"13"}

Member for

2 days 20 hours
Submitted by Mauro Varela on Tue, 2020-09-15 08:59