Bbm7

Chords

01234567891011121314151617181920212223
E
B
G
D
A
E
B
0 1 2 3 4 5 6 7 8 9 10 11 12 13 14 15 16 17 18 19 20 21 22 23
(/) Slide Up  (\) Slide Down  (h) Hammer On  (p) Pull Off  (b) Bend (r) Release (v) Vibrato

Stave 1:

E|--1--|--
B|--2--|--
G|--1--|--
D|--3--|--
A|--1--|--
E|-----|--

Stave 2:

E|--------------------------1--4--1--------------------------|--
B|-----------------------2-----------2-----------------------|--
G|-----------------1--3-----------------3--1-----------------|--
D|--------------3-----------------------------3--------------|--
A|--------1--4-----------------------------------4--1--------|--
E|--1--4-----------------------------------------------4--1--|--

Stave 3:

E|--6--|--
B|--6--|--
G|--6--|--
D|--6--|--
A|-----|--
E|--6--|--

Stave 4:

E|-----------------------4--6--4-----------------------|--
B|--------------------6-----------6--------------------|--
G|--------------3--6-----------------6--3--------------|--
D|--------3--6-----------------------------6--3--------|--
A|-----4-----------------------------------------4-----|--
E|--6-----------------------------------------------6--|--

Stave 5:

E|--6--|--
B|--9--|--
G|--6--|--
D|--6--|--
A|--8--|--
E|--6--|--

Stave 6:

E|--------------------------6--9--6--------------------------|--
B|--------------------6--9-----------9--6--------------------|--
G|-----------------6-----------------------6-----------------|--
D|-----------6--8-----------------------------8--6-----------|--
A|--------8-----------------------------------------8--------|--
E|--6--9-----------------------------------------------9--6--|--

Stave 7:

E|--9---|--
B|--9---|--
G|--10--|--
D|--8---|--
A|------|--
E|------|--

Stave 8:

E|------------------------------9------------------------------|--
B|-----------------------9--11-----11--9-----------------------|--
G|-------------------10-------------------10-------------------|--
D|------------8--11---------------------------11--8------------|--
A|-----8--11-----------------------------------------11--8-----|--
E|--9-------------------------------------------------------9--|--

Stave 9:

E|------|--
B|--14--|--
G|--13--|--
D|--11--|--
A|--13--|--
E|------|--

Stave 10:

E|----------------------------------13----------------------------------|--
B|--------------------------11--14------14--11--------------------------|--
G|------------------10--13----------------------13--10------------------|--
D|--------------11--------------------------------------11--------------|--
A|------11--13----------------------------------------------13--11------|--
E|--13--------------------------------------------------------------13--|--

							http://www.guitartabcreator.com
Instruments
{"strings":[[[1,"|"],[2,"|"],[1,"|"],[3,"|"],[1,"|"],[".","|"]],[[".",".",".",".",".",".",".",".",1,4,1,".",".",".",".",".",".",".",".","|"],[".",".",".",".",".",".",".",2,".",".",".",2,".",".",".",".",".",".",".","|"],[".",".",".",".",".",1,3,".",".",".",".",".",3,1,".",".",".",".",".","|"],[".",".",".",".",3,".",".",".",".",".",".",".",".",".",3,".",".",".",".","|"],[".",".",1,4,".",".",".",".",".",".",".",".",".",".",".",4,1,".",".","|"],[1,4,".",".",".",".",".",".",".",".",".",".",".",".",".",".",".",4,1,"|"]],[[6,"|"],[6,"|"],[6,"|"],[6,"|"],[".","|"],[6,"|"]],[[".",".",".",".",".",".",".",4,6,4,".",".",".",".",".",".",".","|"],[".",".",".",".",".",".",6,".",".",".",6,".",".",".",".",".",".","|"],[".",".",".",".",3,6,".",".",".",".",".",6,3,".",".",".",".","|"],[".",".",3,6,".",".",".",".",".",".",".",".",".",6,3,".",".","|"],[".",4,".",".",".",".",".",".",".",".",".",".",".",".",".",4,".","|"],[6,".",".",".",".",".",".",".",".",".",".",".",".",".",".",".",6,"|"]],[[6,"|"],[9,"|"],[6,"|"],[6,"|"],[8,"|"],[6,"|"]],[[".",".",".",".",".",".",".",".",6,9,6,".",".",".",".",".",".",".",".","|"],[".",".",".",".",".",".",6,9,".",".",".",9,6,".",".",".",".",".",".","|"],[".",".",".",".",".",6,".",".",".",".",".",".",".",6,".",".",".",".",".","|"],[".",".",".",6,8,".",".",".",".",".",".",".",".",".",8,6,".",".",".","|"],[".",".",8,".",".",".",".",".",".",".",".",".",".",".",".",".",8,".",".","|"],[6,9,".",".",".",".",".",".",".",".",".",".",".",".",".",".",".",9,6,"|"]],[[9,"|"],[9,"|"],[10,"|"],[8,"|"],[".","|"],[".","|"]],[[".",".",".",".",".",".",".",".",9,".",".",".",".",".",".",".",".","|"],[".",".",".",".",".",".",9,11,".",11,9,".",".",".",".",".",".","|"],[".",".",".",".",".",10,".",".",".",".",".",10,".",".",".",".",".","|"],[".",".",".",8,11,".",".",".",".",".",".",".",11,8,".",".",".","|"],[".",8,11,".",".",".",".",".",".",".",".",".",".",".",11,8,".","|"],[9,".",".",".",".",".",".",".",".",".",".",".",".",".",".",".",9,"|"]],[[".","|"],[14,"|"],[13,"|"],[11,"|"],[13,"|"],[".","|"]],[[".",".",".",".",".",".",".",".",13,".",".",".",".",".",".",".",".","|"],[".",".",".",".",".",".",11,14,".",14,11,".",".",".",".",".",".","|"],[".",".",".",".",10,13,".",".",".",".",".",13,10,".",".",".",".","|"],[".",".",".",11,".",".",".",".",".",".",".",".",".",11,".",".",".","|"],[".",11,13,".",".",".",".",".",".",".",".",".",".",".",13,11,".","|"],[13,".",".",".",".",".",".",".",".",".",".",".",".",".",".",".",13,"|"]]],"numberofstrings":6,"notes":["E","B","G","D","A","E","B"],"capo":0,"stringnotes":["E4","B3","G3","D3","A2","E2"],"comments":["Stave 1:","Stave 2:","Stave 3:","Stave 4:","Stave 5:","Stave 6:","Stave 7:","Stave 8:","Stave 9:","Stave 10:"],"timing":[["W"],["W","W","W","W","W","W","W","W","W","W","W","W","W","W","W","W","W","W","W",null,"W"],["W"],["W","W","W","W","W","W","W","W","W","W","W","W","W","W","W","W","W"],["W"],["W","W","W","W","W","W","W","W","W","W","W","W","W","W","W","W","W","W","W"],["W"],["W","W","W","W","W","W","W","W","W","W","W","W","W","W","W","W","W"],["W"],["W","W","W","W","W","W","W","W","W","W","W","W","W","W","W","W","W"]],"timingvisible":false,"tabcounter":18,"stave":9,"totalstaves":10,"instrument":"6guitar","selectedtuning":"6_standard","version":"13"}

Member for

2 days 20 hours
Submitted by Mauro Varela on Mon, 2020-09-14 17:29