Bb7

Chords

01234567891011121314151617181920212223
E
B
G
D
A
E
B
0 1 2 3 4 5 6 7 8 9 10 11 12 13 14 15 16 17 18 19 20 21 22 23
(/) Slide Up  (\) Slide Down  (h) Hammer On  (p) Pull Off  (b) Bend (r) Release (v) Vibrato

Stave 1:

E|-----|--
B|--3--|--
G|--3--|--
D|--6--|--
A|--5--|--
E|--6--|--

Stave 2:

E|-----------------------4--6--4-----------------------|--
B|-----------------3--6-----------6--3-----------------|--
G|--------------3-----------------------3--------------|--
D|--------3--6-----------------------------6--3--------|--
A|-----5-----------------------------------------5-----|--
E|--6-----------------------------------------------6--|--

Stave 3:

E|--6--|--
B|--6--|--
G|--7--|--
D|--6--|--
A|--8--|--
E|--6--|--

Stave 4:

E|--------------------------6--------------------------
B|--------------------6--9-----9--6--------------------
G|-----------------7-----------------7-----------------
D|-----------6--8-----------------------8--6-----------
A|-----5--8-----------------------------------8--5-----
E|--6-----------------------------------------------6--

Stave 5:

E|--10--|--
B|--9---|--
G|--10--|--
D|--8---|--
A|------|--
E|------|--

Stave 6:

E|------------------------------10------------------------------|--
B|-----------------------9--11------11--9-----------------------|--
G|----------------7--10--------------------10--7----------------|--
D|-------------8----------------------------------8-------------|--
A|------8--11----------------------------------------11--8------|--
E|--10------------------------------------------------------10--|--

Stave 7:

E|------|--
B|--11--|--
G|--13--|--
D|--12--|--
A|--13--|--
E|------|--

Stave 8:

E|----------------------------------10--13--10----------------------------------|--
B|------------------------------11--------------11------------------------------|--
G|----------------------10--13----------------------13--10----------------------|--
D|------------------12--------------------------------------12------------------|--
A|----------11--13----------------------------------------------13--11----------|--
E|--10--13--------------------------------------------------------------13--10--|--

Stave 9:

E|--13--|--
B|--15--|--
G|--13--|--
D|--15--|--
A|--13--|--
E|------|--

Stave 10:

E|----------------------------------13--16--13----------------------------------
B|------------------------------15--------------15------------------------------
G|----------------------13--15----------------------15--13----------------------
D|--------------12--15--------------------------------------15--12--------------
A|----------13------------------------------------------------------13----------
E|--13--16--------------------------------------------------------------16--13--

							http://www.guitartabcreator.com
Instruments
{"strings":[[[".","|"],[3,"|"],[3,"|"],[6,"|"],[5,"|"],[6,"|"]],[[".",".",".",".",".",".",".",4,6,4,".",".",".",".",".",".",".","|"],[".",".",".",".",".",3,6,".",".",".",6,3,".",".",".",".",".","|"],[".",".",".",".",3,".",".",".",".",".",".",".",3,".",".",".",".","|"],[".",".",3,6,".",".",".",".",".",".",".",".",".",6,3,".",".","|"],[".",5,".",".",".",".",".",".",".",".",".",".",".",".",".",5,".","|"],[6,".",".",".",".",".",".",".",".",".",".",".",".",".",".",".",6,"|"]],[[6,"|"],[6,"|"],[7,"|"],[6,"|"],[8,"|"],[6,"|"]],[[".",".",".",".",".",".",".",".",6,".",".",".",".",".",".",".","."],[".",".",".",".",".",".",6,9,".",9,6,".",".",".",".",".","."],[".",".",".",".",".",7,".",".",".",".",".",7,".",".",".",".","."],[".",".",".",6,8,".",".",".",".",".",".",".",8,6,".",".","."],[".",5,8,".",".",".",".",".",".",".",".",".",".",".",8,5,"."],[6,".",".",".",".",".",".",".",".",".",".",".",".",".",".",".",6]],[[10,"|"],[9,"|"],[10,"|"],[8,"|"],[".","|"],[".","|"]],[[".",".",".",".",".",".",".",".",10,".",".",".",".",".",".",".",".","|"],[".",".",".",".",".",".",9,11,".",11,9,".",".",".",".",".",".","|"],[".",".",".",".",7,10,".",".",".",".",".",10,7,".",".",".",".","|"],[".",".",".",8,".",".",".",".",".",".",".",".",".",8,".",".",".","|"],[".",8,11,".",".",".",".",".",".",".",".",".",".",".",11,8,".","|"],[10,".",".",".",".",".",".",".",".",".",".",".",".",".",".",".",10,"|"]],[[".","|"],[11,"|"],[13,"|"],[12,"|"],[13,"|"],[".","|"]],[[".",".",".",".",".",".",".",".",10,13,10,".",".",".",".",".",".",".",".","|"],[".",".",".",".",".",".",".",11,".",".",".",11,".",".",".",".",".",".",".","|"],[".",".",".",".",".",10,13,".",".",".",".",".",13,10,".",".",".",".",".","|"],[".",".",".",".",12,".",".",".",".",".",".",".",".",".",12,".",".",".",".","|"],[".",".",11,13,".",".",".",".",".",".",".",".",".",".",".",13,11,".",".","|"],[10,13,".",".",".",".",".",".",".",".",".",".",".",".",".",".",".",13,10,"|"]],[[13,"|"],[15,"|"],[13,"|"],[15,"|"],[13,"|"],[".","|"]],[[".",".",".",".",".",".",".",".",13,16,13,".",".",".",".",".",".",".","."],[".",".",".",".",".",".",".",15,".",".",".",15,".",".",".",".",".",".","."],[".",".",".",".",".",13,15,".",".",".",".",".",15,13,".",".",".",".","."],[".",".",".",12,15,".",".",".",".",".",".",".",".",".",15,12,".",".","."],[".",".",13,".",".",".",".",".",".",".",".",".",".",".",".",".",13,".","."],[13,16,".",".",".",".",".",".",".",".",".",".",".",".",".",".",".",16,13]]],"numberofstrings":6,"notes":["E","B","G","D","A","E","B"],"capo":0,"stringnotes":["E4","B3","G3","D3","A2","E2"],"comments":["Stave 1:","Stave 2:","Stave 3:","Stave 4:","Stave 5:","Stave 6:","Stave 7:","Stave 8:","Stave 9:","Stave 10:"],"timing":[["W"],["W","W","W","W","W","W","W","W","W","W","W","W","W","W","W","W","W"],["W"],["W","W","W","W","W","W","W","W","W","W","W","W","W","W","W","W","W"],["W"],["W","W","W","W","W","W","W","W","W","W","W","W","W","W","W","W","W"],["W"],["W","W","W","W","W","W","W","W","W","W","W","W","W","W","W","W","W","W","W"],["W"],["W","W","W","W","W","W","W","W","W","W","W","W","W","W","W","W","W","W","W"]],"timingvisible":false,"tabcounter":19,"stave":9,"totalstaves":10,"instrument":"6guitar","selectedtuning":"6_standard","version":"13"}

Member for

2 days 20 hours
Submitted by Mauro Varela on Mon, 2020-09-14 16:41